Song name
# A B C D E F G H I J K L M N O P Q R S T U V W X Y Z

Elbow - Puncture Repair tab

I wish to make no attempt to take credit for this item of pure beauty. So simple, yet 
and the rest of the band at their best.

Intro (x2)

e|--------------------------------------------------------------------------|
B|-10-9--5--7--7--5--2--3---------------------------------------------------|
G|-------------------------2--4--4--4--4--4--4--4--4------------------------|
D|--------------------------------------------------------------------------|
A|-9--7--4--5--5--4--0--2---------------------------------------------------|
E|-------------------------2--3--3--3--3--3--3--3--3------------------------|

Verse

e|--------------------------------------------------------------------------|
B|-10-9--5--7--7--5--2--3---------------------------------------------------|
G|-------------------------2--4--4--4--4--4--4--4--4------------------------|
D|--------------------------------------------------------------------------|
A|-9--7--4--5--5--4--0--2---------------------------------------------------|
E|-------------------------2--3--3--3--3--3--3--3--3------------------------|
              |
              |I leaned on you today...


e|--------------------------------------------------------------------------|
B|-10-9--5--7--7--5--2--3---------------------------------------------------|
G|-------------------------2--4--4--4--4--4--4--4--4------------------------|
D|--------------------------------------------------------------------------|
A|-9--7--4--5--5--4--0--2---------------------------------------------------|
E|-------------------------2--3--3--3--3--3--3--3--3------------------------|
  |
  |I regularly hurt but never say...


e|--------------------------------------------------------------------------|
B|--------------------------------------------------------------------------|
G|-2--4--6--6--6--6--6--6--6--6---------------------------------------------|
D|-------------------------------4--4--4--4--4--4--4--4---------------------|
A|-------------------------------5--5--5--5--5--5--5--5---------------------|
E|-2--3--5--5--5--5--5--5--5--5---------------------------------------------|
           |
           |I nearly wore the window through...

Chorus

e|--------------------------------------------------------------------------|
B|--------------------------------------------------------------------------|
G|-2--2--2--2--1--1--1--1--4--4--4--4--2--2--2--4--6--6--6--6--6--6---------|
D|--------------------------------------------------------------------------|
A|--------------------------------------------------------------------------|
E|-2--2--2--2--0--0--0--0--3--3--3--3--2--2--2--3--5--5--5--5--5--5---------|
  |
  |Where was air sea rescue?                   |
                                               |The cavalry with tea and...


e|--------------------------------------------------------------------------|
B|--------------------------------------------------------------------------|
G|-6--6---------------------------------------------------------------------|
D|-------4--4--4--4--4--4--4--4---------------------------------------------|
A|-------5--5--5--5--5--5--5--5---------------------------------------------|
E|-5--5---------------------------------------------------------------------|
  |
  |sympathy...


e|--------------------------------------------------------------------------|
B|--------------------------------------------------------------------------|
G|-2--2--2--2--1--1--1--1--4--4--4--4--2--2--2--2---------------------------|
D|--------------------------------------------------------------------------|
A|--------------------------------------------------------------------------|
E|-2--2--2--2--0--0--0--0--3--3--3--3--2--2--2--2---------------------------|
  |
  |You were there, puncture repair... (Repeat Intro x2)

Verse

e|--------------------------------------------------------------------------|
B|-10-9--5--7--7--5--2--3---------------------------------------------------|
G|-------------------------2--4--4--4--4--4--4--4--4------------------------|
D|--------------------------------------------------------------------------|
A|-9--7--4--5--5--4--0--2---------------------------------------------------|
E|-------------------------2--3--3--3--3--3--3--3--3------------------------|
              |
              |I leaned on you today...


e|--------------------------------------------------------------------------|
B|-10-9--5--7--7--5--2--3---------------------------------------------------|
G|-------------------------2--4--4--4--4--4--4--4--4------------------------|
D|--------------------------------------------------------------------------|
A|-9--7--4--5--5--4--0--2---------------------------------------------------|
E|-------------------------2--3--3--3--3--3--3--3--3------------------------|
  |
  |I regularly hurt but never say...


e|--------------------------------------------------------------------------|
B|--------------------------------------------------------------------------|
G|-2--4--6--6--6--6--6--6--6--6---------------------------------------------|
D|-------------------------------4--4--4--4--4--4--4--4---------------------|
A|-------------------------------5--5--5--5--5--5--5--5---------------------|
E|-2--3--5--5--5--5--5--5--5--5---------------------------------------------|
     |
     |You patched me up and sent me on my way...

Chorus

e|--------------------------------------------------------------------------|
B|--------------------------------------------------------------------------|
G|-2--2--2--2--1--1--1--1--4--4--4--4--2--2--2--2---------------------------|
D|--------------------------------------------------------------------------|
A|--------------------------------------------------------------------------|
E|-2--2--2--2--0--0--0--0--3--3--3--3--2--2--2--2---------------------------|
  |
  |You were there, puncture repair... (Repeat Intro)


e|--------------------------------------------------------------------------|
B|-10-9--5--7--7--5--2--3---------------------------------------------------|
G|-------------------------2--4--4--4--4--4--4--4--4------------------------|
D|--------------------------------------------------------------------------|
A|-9--7--4--5--5--4--0--2---------------------------------------------------|
E|-------------------------2--3--3--3--3--3--3--3--3------------------------|
              |
              |I leaned on you today... (END)
Tap to rate this tab
 
# A B C D E F G H I J K L M N O P Q R S T U V W X Y Z