Song name
# A B C D E F G H I J K L M N O P Q R S T U V W X Y Z

Elbow - Grounds For Divorce tab

This is a tab for Grounds for divorce by Elbow, my first tab. It won't be 100% 
correct, but near enough.

"Mondays are for drinking with the seldom seen kid..."

	 		     Go back	
E----------------------|---------------------|
B----------------------|---------------------|
G----------------------|---------------------|
D---b3-0---0-b300--0---|-b3-0---0--b3-0---0--|
A-------3--------3-----|-----3---------3-----|
E----------------------|---------------------|

PAUSE just for "I've been"

Verse

"Working on a cocktail.."

E----------------|
B----------------|
G----------------|
D---3^-0---0-0-0-|
A-------3--------|
E----------------|

Play until:

Bridge

"There's a hole"   "In my neighbourhood"          
"down which of"    "late I cannot help but fall"   
"There's a hole"   "In my neighbourhood"            "down which of late I cannot help but fall"

   Dm              C                                C
E-1-1-1-1-1-1-1-1-|-0-0-0-0-0-0-0-0---|           E-0-0-0-0-0-0-0-0-0-0-0-0-0-0-0-0-|
B-3-3-3-3-3-3-3-3-|-1-1-1-1-1-1-1-1---|           B-1-1-1-1-1-1-1-1-1-1-1-1-1-1-1-1-|
G-2-2-2-2-2-2-2-2-|-0-0-0-0-0-0-0-0---|           G-0-0-0-0-0-0-0-0-0-0-0-0-0-0-0-0-|
D-----------------|-2-2-2-2-2-2-2-2---|           D-2-2-2-2-2-2-2-2-2-2-2-2-2-2-2-2-|
A-----------------|-3-3-3-3-3-3-3-3---|           A-3-3-3-3-3-3-3-3-3-3-3-3-3-3-3-3-|
E-----------------|-------------------|           E---------------------------------|

Solo (Two guitars, 1 lightly distorted, 1 heavily)
                                                               
                          [x2]
E-------------------------------------|
B-----------3-------------3-----------|
G---------------------------5---------|
D--5^-5-3--------5^-5-3---------------|
A---------5-------------5-------------|
E-------------------------------------|



E-------------------------------------|
B---------------3-6-3-----------3-----|
G---------------------------------5---|
D-----5^-5-3----------5^-5-3----------|
A------------5---------------5--------|
E-------------------------------------|


"Mondays is for drinking to the Seldom Seen Kid"

[Let the last note you played ring]

"Oh oh ohuhoh ohuhoh oh"

E-----------------------------------|
B-----------------------------------|
G-----------------------------------|
D-0-0-0-0-3-5-b55-b55-b55-555-3-0-3-|
A-----------------------------------|
E-----------------------------------|

Just before the verse (Distorted, slightly muted guitar)

E-----------------------------------|
B-----------------------------------|
G-----------------------------------|
D-0-0-0-0-3/5-b55-0-0-0-0-----------|
A-------------------------5\0-------|
E-----------------------------------|

Verse

Bridge

Solo

"Someday we'll be drinking with The Seldom Seen Kid"

Then play the same "Oh oh ohuhoh ohuhoh oh" bit.

Finshed.

There you go, you just learnt Grounds For Divorce by Elbow.

If you want to suggest any changes or improvments, send me a PM.

Josephhxx.
Tap to rate this tab
# A B C D E F G H I J K L M N O P Q R S T U V W X Y Z