Song name
# A B C D E F G H I J K L M N O P Q R S T U V W X Y Z

Elbow - Dont Mix Your Drinks tab

Song: Don`t mix your drinks
Band: Elbow
Tabbed by: P. Kranenborg

Verses:
    Gm7			                    Gm7/Bb      Gm7/A
e|------------------------------------------------------------------------|
B|------------------------------------------------------------------------|
G|------------------------------------------------------------------------|
D|------3-----3-----3-----3-----3-----3-----3-----3-----------------------|
A|----5-----5-----5-----5-----5-----5-----5-----5-------------------------|
E|--3-----3-----3-----3-----6-----6-----5-----5---------------------------|

Occasionally throw in the third fret on the G-string.


I`m coming cap in hand...
  Fsus2 (or Csus4, not sure) C
e|------3-----3-----3-----3-----------------------------------------------|
B|----1-----1-----1-----1-------------------------------------------------|
G|------------------------------------------------------------------------|
D|--3-----3-----3-----3--------2-3---2-3---3-2---2-3----------------------|
A|---------------------------3-----3-----3-----3--------------------------|
E|------------------------------------------------------------------------|

Just can`t christen it...
e|----10\----8\----6\---5\----3-----------------------(3)-(6)-(5)---------|
B|--------------------------------5/6\5/6\5-----------(3)-(3)-(3)---------|
G|--7-----5------3----2-----0-----------------7-------(3)-(3)-(3)---------|
D|------------------------------2---------------------(5)-(5)-(5)---------|
A|-----------------------------------------(5)--------(5)-(5)-(5)---------|
E|----------------------------------------------------(3)-(3)-(3)---------|

e|------------------------------------------------------------------------|
B|-5/6\5-5---5--------11--------------------------------------------------|
G|---------7--7------<12>-------------------------------------------------|
D|-------------------<12>-------------------------------------------------|
A|------------------------------------------------------------------------|
E|------------------------------------------------------------------------|

The notes between brackets are played quietly. The <12> are harmonics.
Tap to rate this tab
# A B C D E F G H I J K L M N O P Q R S T U V W X Y Z