Song name
# A B C D E F G H I J K L M N O P Q R S T U V W X Y Z

Elbow - Lippy Kids tab

Note: I know there are only G-chords, that's no mistake. The song is based on this
chord, which is also the reason a D (5th on G) is played througout the entire
song: (http://www.youtube.com/watch?v=NItwaz0nLJA, notice the tape on the
keyboard). This is also the reason I've written the chords out with only three
strings at a time, to make it sound 'dry'. Hope you like it that way.

G5:XX003X  G:XX043X  Gsus2:XX023X  Gsus4:XX053X  G7:X55X3X

Intro:
G5

G          Gsus2  G   Gsus4 G   Gsus2 G
                        *Whistle*

G          Gsus2  G   Gsus4 G   Gsus2 G  Gsus4 G  Gsus2 G    G5

G7         G5  Gsus4 G  Gsus4 G    Gsus2 G Gsus4 G

        Gsus4 G Gsus2 G      Gssu2 G   Gsus4 G Gsus2 G5


Couplet:
G          Gsus2  G   Gsus4 G   Gsus2 G
Lippy kids on     the cor - ner a  -  gain

G          Gsus2  G   Gsus4 G   Gsus2 G  Gsus4 G  Gsus2 G    G5
Lippy kids on     the cor - ner beg - in set - te-ling  like crows

G7         G5  Gsus4 G  Gsus4 G    Gsus2 G Gsus4 G
Though I never per - fected   that sim - i-an    stroll

        Gsus4 G Gsus2 G      Gssu2 G   Gsus4 G Gsus2 G5
But the ci -  garette scent, it    was ev' - rything then

Chorus:
E|-----3-----3-----3-----3-----3-----3-----3-----3---|
B|---3-----3-----3-----3-----3-----3-----3-----3-----|
G|---------------------------------------------------|
D|-------------------------2-----0-------------------|
A|-3-----2-----------------------------2-----3-------|
E|-------------3----(3)------------------------------|

Repeat 7x

Eighth time:
E|-----3-----3-----3-----3-----3-----3-----3---------|
B|---3-----3-----3-----3-----3-----3-----3---3-3-3-3-|
G|-------------------------------------------0-0-0-0-|  etc...
D|-------------------------2-----0-----------0-0-0-0-|
A|-3-----2-----------------------------2-------------|
E|-------------3----(3)------------------------------|


Chorus Lyrics: (every line is for one line from the tabs)
1 Do they know those days are golden?
2 Build a rocket boys! Build a rocket boys!
3 One long June I came down from the trees
4 And cursed on cue. You were freshly painted angel
5 walking on walls. Stealing booze and outlawing hungry
6 kisses. Nobody knew me at home anymore
7 Build a rocket boys!
8 Build a rocket boys!

Couplet:
G          Gsus2  G   Gsus4 G   Gsus2 G
Lippy kids on     the cor - ner a  -  gain

G          Gsus2  G   Gsus4 G   Gsus2 G  Gsus4 G  Gsus2 G    G5
Lippy kids on     the cor - ner beg - in set - te-ling  like crows

G7         G5  Gsus4 G  Gsus4 G    Gsus2 G Gsus4 G
Though I never per - fected   that sim - i-an    stroll

        Gsus4 G Gsus2 G      Gssu2 G   Gsus4 G Gsus2 G5
                   *Whistle*

Chorus:
E|-----3-----3-----3-----3-----3-----3-----3-----3---|
B|---3-----3-----3-----3-----3-----3-----3-----3-----|
G|---------------------------------------------------|
D|-------------------------2-----0-------------------|
A|-3-----2-----------------------------2-----3-------|
E|-------------3----(3)------------------------------|

Repeat 7x

Eighth time:
E|-----3-----3-----3-----3-----3-----3-----3---------|
B|---3-----3-----3-----3-----3-----3-----3---3-3-3-3-|
G|-------------------------------------------0-0-0-0-|  etc...
D|-------------------------2-----0-----------0-0-0-0-|
A|-3-----2-----------------------------2-------------|
E|-------------3----(3)------------------------------|


Chorus Lyrics: (every line is for one line from the tabs)
1 Do they know those days are golden?
2 Build a rocket boys! Build a rocket boys!
3 One long June I came down from the trees
4 And cursed on cue. You were freshly painted angel
5 walking on walls. Stealing booze and outlawing hungry
6 kisses. Nobody knew me at home anymore
7 Build a rocket boys!
8 Build a rocket boys!


Outro:
G          Gsus2  G   Gsus4 G   Gsus2 G
                      *Whistle*

G          Gsus2  G   Gsus4 G   Gsus2 G  Gsus4 G  Gsus2 G    G5

G7         G5  Gsus4 G  Gsus4 G    Gsus2 G Gsus4 G

        Gsus4 G Gsus2 G      Gssu2 G   Gsus4 G Gsus2 G5 *Fade out*
Tap to rate this tab
# A B C D E F G H I J K L M N O P Q R S T U V W X Y Z