Song name
# A B C D E F G H I J K L M N O P Q R S T U V W X Y Z

Elbow - Grace Under Pressure tab

From Cast Of Thousands, couldn't find a version on the net that sounded right so had a go myself.
Watched him play this live, had a capo on the 5th fret.
Not sure if this is exact, but sounds almost perfect to me.

Tune guitar to OPEN D tuning

STANDARD E A D G B E 
to
OPEN D   D A D F# A D 

CAPO 5th, tab in relation to capo, its pretty easy to work out how it should sound.


    Grace        Under          Pressure          
D-|---0--------0-------0-------0-------0------|
A-|---9--------0-------9-------10------2------|
F#|---0--------7-------0-------8-------3------|
D-|---7--------0-------7-------9-------0------|
A-|---0--------7-------0-------0-------2------|
D-|---0--------0-------0-------0-------0------|

         
D-|---0-----0-----0-----0-----0-----0----0----|
A-|---0-----2-----0-----2-----0-----2----0----|
F#|---3-----3-----7-----3-----3-----3----7----|
D-|---0-----0-----0-----0-----0-----0----0----|
A-|---4-----2-----7-----2-----4-----2----7----|
D-|---0-----0-----0-----0-----0-----0----0----|

     Eyes      of       an        angel    
D-|---0--------0-------0-------0-------0------|
A-|---9--------0-------9-------10------2------|
F#|---0--------7-------0-------8-------3------|
D-|---7--------0-------7-------9-------0------|
A-|---0--------7-------0-------0-------2------|
D-|---0--------0-------0-------0-------0------|

     Lay       Me      Down
D-|---0--------0-------0----------------------|
A-|---2--------0-------0----------------------|
F#|---3--------3-------0----------------------|
D-|---0--------2-------0----------------------|
A-|---2--------4-------5----------------------|
D-|---0--------0-------0----------------------|


Then the song gets a bit faster, but you just repeat this over and over, sounds really nice.


Tap to rate this tab
# A B C D E F G H I J K L M N O P Q R S T U V W X Y Z