Song name
# A B C D E F G H I J K L M N O P Q R S T U V W X Y Z

Elbow - Stops tab

The strumming isn't in the tab, listen to the song for that.  Just the basic chords in 
arrangements.


Verse
-x------x------6------5------| Played twice
-x------x------7------7------|
-2------4------8------7------|
-4------6------8------7------|
-4------6------6------5------|
-2------4--------------------|

Bridge
-x------3---2---3-----2-|  Played Twice
-x------0---3---0-----3-|
-2------0---2---0-----2-|
-4------0---0---0-----0-|
-4------2-------2-------|
-2------3-------3-------|

Chorus
-2-----2-----------|  Played twice
-5-----3-----------|
-4-----4-----------|
-2-----4-----------|
-2-----2-----------|
-0--4--------------|

Chorous outro
-2----2------2-----|
-2----2------2-----|
-4----3------2-----|
-4----4------4-----|
-4----4------4-----|
-2----2------2-----|
Tap to rate this tab
# A B C D E F G H I J K L M N O P Q R S T U V W X Y Z