Song name
# A B C D E F G H I J K L M N O P Q R S T U V W X Y Z

Elder - Gemini tab

Tabbed by: Joshua Garcia (joshuag523@aol.com)

Tabs for the song: Gemini by Elder
Please rate and let me know if you have any corrections. Thank you.


Official band website: http://beholdtheelder.bandcamp.com/


Tuning: D Tuning (D G C F A D)


Intro
Guitar 1:
D||-------------------------------------------------------------------|
A||-------------------------------------------------------------------|
F||-------------------------------------------------------------------|
C||-------------------------------------------------------------------| x2
G||-------------------------------------------------------------------|
D||--0-0-0-0---0---0-0-0-0-0---0---0-0-0-0-0---0---0-0-0-0-0---0---0--|


Guitar 1/2:
D||-------------------------------------------------------------------|
A||-------------------------------------------------------------------|
F||-------------------------------------------------------------------|
C||--2-2-2-2---2---2-2-2-2-2---2---2-2-2-2-2---2---2-2-2-2-2---2---2--| x2
G||--2-2-2-2---2---2-2-2-2-2---2---2-2-2-2-2---2---2-2-2-2-2---2---2--|
D||--0-0-0-0---0---0-0-0-0-0---0---0-0-0-0-0---0---0-0-0-0-0---0---0--|



Riff 1
Guitar 1:
D||-------------------------------------------|--------------------------------------------|
A||-------------------------------------------|----------------------------15~------14b15--|
F||--------12/14---12---12-------7---7/9---9--|--------12/14---12---12-----x--------x------|
C||--------12/14---12---12-------7---7/9---9--|--------12/14---12---12-----x--------x------| x2
G||--------10/12---10---10-------5---5/7---7--|--------10/12---10---10-----12~------12~----|
D||--0-0-0-----------------0-0-0--------------|--0-0-0-----------------0-0------0-0--------|


Guitar 2:
D||-------------------------------------------------------------------|
A||-------------------------------------------------------------------|
F||-------------------------------------------------------------------|
C||--2-2-2-2---2---2-2-2-2-2---2---2-2-2-2-2---2---2-2-2-2-2---2---2--| x2
G||--2-2-2-2---2---2-2-2-2-2---2---2-2-2-2-2---2---2-2-2-2-2---2---2--|
D||--0-0-0-0---0---0-0-0-0-0---0---0-0-0-0-0---0---0-0-0-0-0---0---0--|



Guitar 1:
D||-------------------------------------------|---------------------------------------------|
A||-------------------------------------------|-----------------------------15~------14b15--|
F||--------12/15---12---1212-----7---7/9---9--|--------12/14---12---12------x--------x------|
C||-------------------------------------------|-----------------------------x--------x------|
G||-------------------------------------------|-----------------------------12~------12~----|
D||--0-0-0-------------------0-0--------------|--0-0-0------------------0-0------0-0--------|


D||-------------------------------------------|------------------------------------------|
A||-------------------------------------------|-----------------------------15~------14--|
F||--------12/14---12---1212-----7---7/9---9--|--------12/14---12---12------x--------x---|
C||-------------------------------------------|-----------------------------x--------x---|
G||-------------------------------------------|-----------------------------12~------12~-|
D||--0-0-0-------------------0-0--------------|--0-0-0------------------0-0------0-0-----|


Guitar 2:
D||-------------------------------------------------------------------|
A||-------------------------------------------------------------------|
F||-------------------------------------------------------------------|
C||--2-2-2-2---2---2-2-2-2-2---2---2-2-2-2-2---2---2-2-2-2-2---2---2--| x2
G||--2-2-2-2---2---2-2-2-2-2---2---2-2-2-2-2---2---2-2-2-2-2---2---2--|
D||--0-0-0-0---0---0-0-0-0-0---0---0-0-0-0-0---0---0-0-0-0-0---0---0--|



Verse
Guitar 1/2:
D||------------0~--------------------------|
A||---------------0~-----------------------|
F||--4~--------------0~---------7~-----9~--|
C||--2~-------------------------5~-----7~--| x2
G||--2~-------------------------5~-----7~--|
C||----------------------------------------|


D||------------0~--------0~----------------|
A||---------------0~--------0~-------------|
F||--4~--------------0-0--------7~-----9~--|
C||--2~-------------------------5~-----7~--|
G||--2~-------------------------5~-----7~--|
D||----------------------------------------|


D||------------0~--------------------------|
A||---------------0~-----------------------|
F||--4~--------------0~---------7~-----9~--|
C||--2~-------------------------5~-----7~--|
G||--2~-------------------------5~-----7~--|
C||----------------------------------------|


Guitar 1/2:
D||---------------|
A||---------------|
F||---------------|
C||---------------|
G||---------------|
D||--10~-----12~--|



Riff 2
Guitar 1/2:
D||------------------------------------------------------------------|
A||------------------------------------------------------------------|
F||------------------------------------------------------------------|
C||----------------------------------------------------12~------14~--| x2
G||--------11~---------11~---------11~---------11~-----12~------14~--|
D||--12-12-------12-12-------12-12-------12-12-------0-10~------12~--|


D||------------------------------------------------------------------|
A||------------------------------------------------------------------|
F||------------------------------------------------------------------|
C||----------------------------------------------------12~------14~--|
G||--------11~---------11~---------11~-----------------12~------14~--|
D||--12-12-------12-12-------12-12-------12-12-12~---0-10~------12~--|


D||------------------------------------------------------------------|
A||------------------------------------------------------------------|
F||------------------------------------------------------------------|
C||------------------------------------------------------------------|
G||--------11~---------11~---------11~-------------------------------|
D||--12-12-------12-12-------12-12-------12-12-12~----0-3-7-3-2-0-2--|



Riff 1
Guitar 1:
D||-------------------------------------------|--------------------------------------------|
A||-------------------------------------------|----------------------------15~------14b15--|
F||--------12/14---12---12-------7---7/9---9--|--------12/14---12---12-----x--------x------|
C||--------12/14---12---12-------7---7/9---9--|--------12/14---12---12-----x--------x------| x2
G||--------10/12---10---10-------5---5/7---7--|--------10/12---10---10-----12~------12~----|
D||--0-0-0-----------------0-0-0--------------|--0-0-0-----------------0-0------0-0--------|


Guitar 2:
D||-------------------------------------------------------------------|
A||-------------------------------------------------------------------|
F||-------------------------------------------------------------------|
C||--2-2-2-2---2---2-2-2-2-2---2---2-2-2-2-2---2---2-2-2-2-2---2---2--| x2
G||--2-2-2-2---2---2-2-2-2-2---2---2-2-2-2-2---2---2-2-2-2-2---2---2--|
D||--0-0-0-0---0---0-0-0-0-0---0---0-0-0-0-0---0---0-0-0-0-0---0---0--|



Guitar 1:
D||-------------------------------------------|---------------------------------------------|
A||-------------------------------------------|-----------------------------15~------14b15--|
F||--------12/15---12---1212-----7---7/9---9--|--------12/14---12---12------x--------x------|
C||-------------------------------------------|-----------------------------x--------x------|
G||-------------------------------------------|-----------------------------12~------12~----|
D||--0-0-0-------------------0-0--------------|--0-0-0------------------0-0------0-0--------|


D||-------------------------------------------|------------------------------------------|
A||-------------------------------------------|-----------------------------15~------14--|
F||--------12/14---12---1212-----7---7/9---9--|--------12/14---12---12------x--------x---|
C||-------------------------------------------|-----------------------------x--------x---|
G||-------------------------------------------|-----------------------------12~------12~-|
D||--0-0-0-------------------0-0--------------|--0-0-0------------------0-0------0-0-----|


Guitar 2:
D||-------------------------------------------------------------------|
A||-------------------------------------------------------------------|
F||-------------------------------------------------------------------|
C||--2-2-2-2---2---2-2-2-2-2---2---2-2-2-2-2---2---2-2-2-2-2---2---2--| x2
G||--2-2-2-2---2---2-2-2-2-2---2---2-2-2-2-2---2---2-2-2-2-2---2---2--|
D||--0-0-0-0---0---0-0-0-0-0---0---0-0-0-0-0---0---0-0-0-0-0---0---0--|



Verse
Guitar 1/2:
D||------------0~-------------------------------------|
A||---------------0~----------------------------------|
F||--4~--------------0~---------7~-----9~-----pb10r9--|
C||--2~-------------------------7~-----7~-------------|
G||--2~-------------------------5~-----7~-------------|
D||---------------------------------------------------|


D||------------0~--------------------------|
A||---------------0~-----------------------|
F||--4~--------------0~---------7~-----9~--|
C||--2~-------------------------5~-----7~--|
G||--2~-------------------------5~-----7~--|
C||----------------------------------------|


D||------------0~------3~------------------|
A||---------------0~-----0~----------------|
F||--4~--------------0-----0~---7~-----9~--|
C||--2~-------------------------5~-----7~--|
G||--2~-------------------------5~-----7~--|
D||----------------------------------------|



Riff 3
Guitar 1/2:
D||----------------------------------------------------------------------------------|
A||----------------------------------------------------------------------------------|
F||----------------------------------------------------------------------------------|
C||------9~-------9~--9~-------9~-------9~--9~-------7~-------7~--7-7----7--7---9-9--| X2
G||--5h7-7~---5h7-7~--7~---4/5-5~---4/5-5~--5~---2/4-4~---2/4-4~--4-4----7--7---9-9--|
D||----------------------------------------------------------------------5--5---7-7--|




Guitar 1:
D||-------------------------------------------------------------------------------|
A||--------------------------------------------------------------17----------17~--|
F||--16~---------16/18\16-14-13----14-13-------------16/18\16-14-------13-14------|
C||--------------------------------------14~--------------------------------------|
G||-------------------------------------------------------------------------------|
D||-------------------------------------------------------------------------------|


D||-------------------------------------------------------------------|
A||--------------------------------------------------17----------17~--|
F||--16/18\16-14-13----14-13-------------16/18\16-14-------13-14------|
C||--------------------------14~--------------------------------------|
G||-------------------------------------------------------------------|
D||-------------------------------------------------------------------|


Guitar 2:
D||------------------------------------------------------------------|
A||---------------------------------------------------10--------10~--|
F||--9~---------9/11\9-7-6----7-6------------9/11\9-7-------6-7------|
C||-------------------------------7~---------------------------------|
G||------------------------------------------------------------------|
D||------------------------------------------------------------------|


D||-------------------------------------------------------|
A||----------------------------------------10--------10~--|
F||--9/11\9-7-6----7-6------------9/11\9-7-------6-7------|
C||--------------------7~---------------------------------|
G||-------------------------------------------------------|
D||-------------------------------------------------------|



Guitar 1 (dub):
D||----------------------------------------|
A||----------------------------------------|
F||----------------------------------------|
C||--5b6r5-3-------5b6r5-3----------3-5-3--|
G||----------3---3---------2--------3-5-3--|
D||-------------------------------0-3-5-3--|



Riff 4
Guitar 1/2:
D||------------------------------------------------------------------------|
A||------------------------------------------------------------------------|
F||------------------------------------------------------------------------|
C||------------------5---------------7b9r7-5-------7b8r7-5----------5-7-5--|
G||----------5-6-7-------7---5-6-7-----------5---5---------4--------5-7-5--|
D||--0---0-----------------5-------5------------------------------0-3-5-3--|


D||------------------------------------------------------------------------|
A||------------------------------------------------------------------------|
F||------------------------------------------7-------------6---------------|
C||------------------5---------------7b9r7-5-------7b8r7-5----------5-7-5--|
G||----------5-6-7-------7---5-6-7---------------5------------------5-7-5--|
D||--0---0-----------------5-------5------------------------------0-3-5-3--|


D||------------------------------------------------------------------------|
A||------------------------------------------------------------------------|
F||------------------------------------------------------------------------|
C||------------------5---------------7b9r7-5-------7b8r7-5----------5-7-5--|
G||----------5-6-7-------7---5-6-7-----------5---5---------4--------5-7-5--|
D||--0---0-----------------5-------5------------------------------0-3-5-3--|


D||-----|
A||-----|
F||-----|
C||--2--|
G||--2--|
D||--0--|



Solo
Guitar 1:
D||------------------------------------------------------------------|
A||--12~------12~------12~------12~----------------------------------|
F||--14b16~---14b16~---14b16~---14b16~---14b16--14b16--14b16--14b16--|
C||------------------------------------------------------------------|
G||------------------------------------------------------------------|
D||------------------------------------------------------------------|


D||--12---------------12---------------12---------------12---------------------|
A||-----15-12------------15-12------------15-12------------15-12----12h15/17~--|
F||-----------14b16------------14b16------------14b16------------14------------|
C||----------------------------------------------------------------------------|
G||----------------------------------------------------------------------------|
D||----------------------------------------------------------------------------|


D||--12--------------------------------------------------------------------------------------------|
A||----15-12-15-12---------------------------------------------------------------------------------|
F||----------------15-14-12-14-12-----------------------12-12~------1414~--12-14-14b16-r14p12-12~--|
C||-------------------------------14-12--------------12----12~--12---------------------------------|
G||-------------------------------------14\10~---/14-----------------------------------------------|
D||------------------------------------------------------------------------------------------------|


D||---------------------------------------------------------------------------|
A||---------------------------------------------------------------------------|
F||-----------12~------------12~------------12~------------12--14--14b16r14~--|
C||--14-12----------14-12----------14-12----------14-12-----------------------|
G||--------14-------------14-------------14-------------14--------------------|
D||---------------------------------------------------------------------------|


D||--15-12----15-12----15-12------15-12----15---15b17r15--12-----|
A||--------12-------12-------12---------12------------------15~--|
F||--------------------------------------------------------------|
C||--------------------------------------------------------------|
G||--------------------------------------------------------------|
D||--------------------------------------------------------------|


D||------------------12------15-12----15-12-------------------------------------------------------|
A||--15b17~--15b17~--15b17~--------12-------15-15--12----12~--------------------------------------|
F||---------------------------------------------------14------14-12----12-------------------------|
C||-----------------------------------------------------------------14------14--12--11h12p11------|
G||------------------------------------------------------------------------------------------12~--|
D||-----------------------------------------------------------------------------------------------|


Guitar 2:
D||--------------------------------------------------------------------------------------|
A||--------------------------------------------------------------------------------------|
F||--------------------------------------------------------------------------------------|
C||-------------------------------------------------------------------------------5h7p5--| x4
G||------7--------7--------7--------7--------7--------7---5h6h7-5h6h7-5h6h7-5h6h7--------|
D||--0-0-----00-0-----00-0-----00-0-----00-0-----00-0------------------------------------|
         .        .        .        .        .        .



Guitar 1:
D||---------------------------------------------------------------------------------------|
A||---------------------------------------------------------------------------------------|
F||---------------------------------------------------------------------------------------|
C||--b16~--------r14--14~---12h14p12-11-12-11---------------------------------------------|
G||-------------------------------------------12~---12/14\12-10-12------------------------|
D||----------------------------------------------------------------10-14~---10~---10/12~--|


D||------------------------------------------------------------------|
A||------------------------------------------------------------------|
F||------------------------------------------------------------------|
C||-----------------------------------------------12-14-12-14~---14--|
G||-----------------------12-------12-14----12-14--------------------|
D||--10/12-14-15-12-14-15----14-15-------15--------------------------|


D||-------------------------------------------------------------------------|
A||-------------------------------------------------------------------------|
F||--14-12----12-14-12----12-14-12----12-----14b16~----r14-12---------------|
C||--------14----------14----------14-------------------------14~----14-----|
G||---------------------------------------------------------------------10--|
D||-------------------------------------------------------------------------|


D||--12~-----------------12---------------------|
A||--15b17~-----------15-----15-14--14--h15-15--|
F||----------14p12------------------------------|
C||---------------14----------------------------|
G||---------------------------------------------|
D||---------------------------------------------|


D||--15--------------------------------------------------|
A||--19b20---r19--17-15-17~--17-15-----------------------|
F||--------------------------------16-12-16-15-14-12-----|
C||--------------------------------------------------14--|
G||------------------------------------------------------|
D||------------------------------------------------------|


D||--19-15-17-14-------12-------------------------------------------------------------------|
A||--------------15-12----------------------------------------------------------------------|
F||-----------------------15-14-12-----12~b13-------------------------12--14b16-14-12-------|
C||--------------------------------14~---------14-12----12-14~--12h14------------------14~--|
G||--------------------------------------------------14-------------------------------------|
D||-----------------------------------------------------------------------------------------|


Guitar 2:
D||-----------------------------------------|
A||-----------------------------------------|
F||--12--12----7--7----7-9------------------|
C||--12--12----5--5----5-7------------------| x8
G||--10--10----5--5----5-7------7--------7--|
D||-------------------------0-0-----00-0----|
                                .        .



Bridge
Guitar 1 (dub):
D||-------|
A||-------|
F||-------|
C||--14~--|
G||-------|
D||-------|


Guitar 1/2:
D||----------------------------------------------|
A||----------------------------------------------|
F||--9~--\-------------------7---7--12---12--9~--|
C||--9~--\--7~---9--2~-------7---7--12---12--9~--| x4
G||--7~--\--7~---9--2~-------5---5--10---10--7~--|
D||---------5~---7--0~---------------------------|



Interlude
Guitar 1:
D||--12-------------12~---15--15-15-----15----14------------14-----14-----14---------|
A||----12--12-12~-----------12-----12-----------12-----12-----12-----12-----12---12--|
F||------12--------------------------12----12-----14~----14-----14b----14b----14b----|
C||----------------------------------------------------------------------------------|
G||----------------------------------------------------------------------------------|
D||----------------------------------------------------------------------------------|


D||--12----12--------------------15-----15----14-----14-----14-----14-----14---------|
A||----12-----12~---12------12~----12-----------12-----12-----12-----12-----12---12--|
F||------12------------12~-----------12----12-----14-----14-----14b----14b----14b----|
C||----------------------------------------------------------------------------------|
G||----------------------------------------------------------------------------------|
D||----------------------------------------------------------------------------------|


D||--12-----12-----12-----15-------------------------14-----14-----14-----14-----12--|
A||----12-----12------------12~-----------------12-----12-----12-----12-----12-------|
F||------12-----12----12---------12~--12~--12~----14-----14-----14b----14b----14b----|
C||----------------------------------------------------------------------------------|
G||----------------------------------------------------------------------------------|
D||----------------------------------------------------------------------------------|


D||--12----12-----12----15-----15--------------------14-----14-----14-----14-----12--|
A||----12----12-----------12-----12-------------12-----12-----12-----12-----12-------|
F||------12----12----12-----12-------12~---12~----14-----14-----14b----14b----14b----|
C||----------------------------------------------------------------------------------|
G||----------------------------------------------------------------------------------|
D||----------------------------------------------------------------------------------|


D||--12----12-----12----15--15-15--------15---14-----14-----14-----14-----14-----12--|
A||----12----12-----------12-----12~---12-------12-----12-----12-----12-----12-------|
F||------12----12----12---------------------------14-----14-----14b----14b----14b----|
C||----------------------------------------------------------------------------------|
G||----------------------------------------------------------------------------------|
D||----------------------------------------------------------------------------------|


D||--12----12-----12----15-----15-------------------14-----14-----14-----14----------|
A||----12----12-----------12-----12------------12-----12-----12-----12-----12---12~--|
F||------12----12----12-----12-----12-12~--------14-----14-----14b----14b----14b-----|
C||----------------------------------------------------------------------------------|
G||----------------------------------------------------------------------------------|
D||----------------------------------------------------------------------------------|



Riff 5
Guitar 1:
D||----------|
A||--12~-----|
F||--14b16~--|
C||----------|
G||----------|
D||----------|


D||--15-----15-14-----------|---------------------|
A||----12--------12---------|--12~-------12~-(\)--|
F||------12--------12~-(\)--|--14b16~----12~-(\)--|
C||-------------------------|---------------------| x2
G||-------------------------|---------------------|
D||-------------------------|---------------------|


D||--15-----15-14-----------|---------------------|
A||----12--------12-12~-(\)-|--12~-------12~-(\)--|
F||------12-----------------|--14b16~----12~-(\)--|
C||-------------------------|---------------------|
G||-------------------------|---------------------|
D||-------------------------|---------------------|


D||--15-----15-14-------------|------------------------------|
A||----12--------12-----------|--12~-------12~-------12~-----|
F||------12--------12~--------|--14b16~----14b16~----14b16~--|
C||--------------------(14\)--|------------------------------|
G||---------------------------|------------------------------|
D||---------------------------|------------------------------|


D||-----15-----14-------------------|------------12~-------------|
A||------------------15-12----------|--12~-------15b17~----r15~--|
F||--12----12-----12-------14~-(\)--|--14b16~--------------------|
C||---------------------------------|----------------------------|
G||---------------------------------|----------------------------|
D||---------------------------------|----------------------------|


D||-----15-----14-------------------|------------12~-------------|
A||------------------15-12----------|--12~-------15b17-r15--15~--|
F||--12----12-----12-------14~-(\)--|--14b16~--------------------|
C||---------------------------------|----------------------------|
G||---------------------------------|----------------------------|
D||---------------------------------|----------------------------|


D||-----15-----14-------------------|------------12~-------------|
A||------------------15-12----------|--12~-------15b17~----r15~--|
F||--12----12-----12-------14~-(\)--|--14b16~--------------------|
C||---------------------------------|----------------------------|
G||---------------------------------|----------------------------|
D||---------------------------------|----------------------------|


D||-----15-----14-------------------|------------12~-----|
A||--------12--------15-12----------|--12~-------15b17~--|
F||--12-----------12-------14~-(\)--|--14b16~------------|
C||---------------------------------|--------------------|
G||---------------------------------|--------------------|
D||---------------------------------|--------------------|


Guitar 2:
D||------------------------------------------------|
A||------------------------------------------------|
F||--------------------------------------7~----8~--|
C||--2-2-2-2-2~----------5-5-5-5-5~------7~----8~--| x8
G||--2-2-2-2-2~----------5-5-5-5-5~------5~----6~--|
D||--0-0-0-0-0~----------3-3-3-3-3~----------------|



Riff 6
Guitar 1:
D||------------------------------------------------------------------------------------|
A||------------------------------------------------------------------------------------|
F||------------------------------------------------------------------------------------|
C||------------------------------------------------------------------------------------| x4
G||--------------------------10-10-10-10-10-10-10-10-0-0-0-0-0-0-0-0-9-9-9-9-9-9b10r9--|
D||--12-12-12-12-12-12-12-12-----------------------------------------------------------|


D||---------------------------------------------------------------------------------------------|
A||---------------------------------------------------------------------------------------------|
F||---------------------------------------------------------------------------------------------|
C||---------------------------------------------------------------------------------------------|
G||-----------------------------------10-10-10-10-10-10-10-10-0-0-0-0-0-0-0-0-9-9-9-9-9-9b10r9--|
D||--10h12-12-12-10h12-12-10h12-10-12-----------------------------------------------------------|


D||------------------------------------------------------------------|
A||------------------------------------------------------------------|
F||--------------------------------------------------------12~--12~--|
C||--------------------------------------------12----12-14-----------|
G||--------------------10----10/12-14-12-14~------14-----------------|
D||--10h12-12-12-10h12----12-----------------------------------------|


D||---------------------------------------------------|
A||---------15-12-12-----12-----12-----12-----12~-----|
F||--14b16--------14b16--14b16--14b16--14b16--14b16~--|
C||---------------------------------------------------|
G||---------------------------------------------------|
D||---------------------------------------------------|



Riff 7
Guitar 1/2:
D||--------------------------------------|-------------------------------------|
A||--------------------------------------|-------------------------------------|
F||--------------------------------------|-------------------------------------|
C||--14-14-12-14~---14-14~---12~--\--5~--|--14-14-12-14~-----------12~--\--5~--| x4
G||--14-14-12-14~---14-14~---12~--\--5~--|--14-14-12-14~-----------12~--\--5~--|
D||--12-12-10-12~---12-12~---10~--\--3~--|--12-12-10-12~---0-12~---10~--\--3~--|



Guitar 1:
D||--15-12-14----------15-12-14----------15-12-14-------------------------------------------|
A||-----------15-12~------------15-12~------------15--------------15----------12------------|
F||--------------------------------------------------14~--14~--14----14-12~-----12-11-------|
C||----------------------------------------------------------------------------------12-----|
G||------------------------------------------------------------------------------------14~--|
D||-----------------------------------------------------------------------------------------|


D||--15-12-14----------15-12-14----------15-12-14----------------------------------------------|
A||-----------15-12~------------15-12~------------15--------------15----------12---------------|
F||--------------------------------------------------14~--14~--14----14-12~-----12-11----------|
C||----------------------------------------------------------------------------------12--------|
G||------------------------------------------------------------------------------------14-12~--|
D||--------------------------------------------------------------------------------------------|


D||--15-12-14-------15-12-14-------15-12-14-------------------------------------------------|
A||-----------15-12----------15-12----------15-12-----------------15----------12------------|
F||--------------------------------------------------14~--14~--14----14-12~-----12-11-------|
C||----------------------------------------------------------------------------------12-----|
G||------------------------------------------------------------------------------------14~--|
D||-----------------------------------------------------------------------------------------|


D||--15-12-14-------15-12-14-------15-12-14-------------------------------------------------|
A||-----------15-12----------15-12----------15-12-----------------15----------12------------|
F||--------------------------------------------------14~--14~--14----14-12~-----12-11-------|
C||----------------------------------------------------------------------------------12-----|
G||------------------------------------------------------------------------------------14~--|
D||-----------------------------------------------------------------------------------------|


Guitar 2:
D||--------------------------------------|-------------------------------------|
A||--------------------------------------|-------------------------------------|
F||--------------------------------------|-------------------------------------|
C||--14-14-12-14~---14-14~---12~--\--5~--|--14-14-12-14~-----------12~--\--5~--| x4
G||--14-14-12-14~---14-14~---12~--\--5~--|--14-14-12-14~-----------12~--\--5~--|
D||--12-12-10-12~---12-12~---10~--\--3~--|--12-12-10-12~---0-12~---10~--\--3~--|



Outro
Guitar 1:
D||-------------------------------|
A||------12-----------------------|
F||--12------12--11--14--11-------|
C||--------------------------14~--|
G||-------------------------------|
D||-------------------------------|


Guitar 2:
D||------------------------|
A||------------------------|
F||------------------------|
C||------------------------|
G||------------------------|
D||--3--7--3--2--5--2--0~--|




Tablature Legend
----------------
 h   - hammer-on
 p   - pull-off
 b   - bend
 r   - release bend
 *   - pinch harmonic
 '   - natural harmonic
 x   - mute note
 .   - palm mute
 /   - slide down
 \   - slide up
Tap to rate this tab
# A B C D E F G H I J K L M N O P Q R S T U V W X Y Z