Song name
# A B C D E F G H I J K L M N O P Q R S T U V W X Y Z

Eldkvarn - Man Ver Bord tab

-------------------------------------------------------------------------------
			     Man över bord - Eldkvarn
-------------------------------------------------------------------------------
Tabbed by: Sirhank
Email: trollkarl@live.se

Tuning: Standard (I play with capo on third, think plura plays with capo on fourth)

e|--------------------------------------------------------------------2--0--|
B|----------3----3------3----3----------------------------------------3--2--|
G|-------2-----2-----2----2-----------4----4-----0-----0--0----0----0-2--2--|
D|----4------0----------------------4----4-----0-----0---2----0---0---0--2--|
A|-----------------4-----0--------2----0------------------------------0--0--|
E|-------------------------------------------3-----2----0---2---3-----2-----|




************************************

| /   slide up
| \   slide down
| h   hammer-on
| p   pull-off
| ~   vibrato
| +   harmonic
| x   Mute note
| b   Bend
| pb  Pre-bend
| br  Bend release
| pbr Pre-bend release
| brb Bend release bend
Tap to rate this tab
 
# A B C D E F G H I J K L M N O P Q R S T U V W X Y Z