Song name
# A B C D E F G H I J K L M N O P Q R S T U V W X Y Z

Electra - Coming To Get You tab

-------------------------------------------------------------------------------
                        COMING TO GET YOU! - Electra
-------------------------------------------------------------------------------
Tabbed by: Chai Ozeri
Email: chainet24@gmail.com

Tuning: standard

A fantastic song by a spectacular band. Check them out on www.electramusic.com!


VERSE 1:

e|---3-----------------------------------------------------------------3--2--|
B|---3-----------------------------------------------------------------3--2--|
G|---3-----------------------------------------------------------------3--2--|
D|---5-----------------------------------------------------------------5--4--|
A|---5-----------------------------------------------------------------5--4--|
E|---3-----------------------------------------------------------------3--2--|
                    How does it feel when the voices get loud and in-

e|---1-----------------------------------------------------------------1--2--|
B|---1-----------------------------------------------------------------1--2--|
G|---1-----------------------------------------------------------------1--2--|
D|---3-----------------------------------------------------------------3--4--|
A|---3-----------------------------------------------------------------3--4--|
E|---1-----------------------------------------------------------------1--2--|
     -tense                                         you choose to liste-

e|---3-----------------------------------------------------------------3--2--|
B|---3-----------------------------------------------------------------3--2--|
G|---3-----------------------------------------------------------------3--2--|
D|---5-----------------------------------------------------------------5--4--|
A|---5-----------------------------------------------------------------5--4--|
E|---3-----------------------------------------------------------------3--2--|
     -en                or do you turn off the light 'till they fade a-

e|---1-----------------------------------------------------------------------|
B|---1-----------------------------------------------------------------------|
G|---1-----------------------------------------------------------------------|
D|---3-----------------------------------------------------------------------|
A|---3-----------------------------------------------------------------------|
E|---1-----------------------------------------------------------------------|
     -way                                        it's the return of the night

PRE-CHORUS:

e|---3----3-3-3----3-3-3----3-3-3----3-3-3----3-3-3----3-3-4----4----4-------|
B|---4----4-4-4----4-4-4----4-4-4----4-4-4----4-4-4----4-4-6----6----6-------|
G|---5----5-5-5----5-5-5----5-5-5----5-5-5----5-5-5----5-5-6----6----6-------|
D|---5----5-5-5----5-5-5----5-5-5----5-5-5----5-5-5----5-5-6----6----6-------|
A|---3----3-3-3----3-3-3----3-3-3----3-3-3----3-3-3----3-3-4----4----4-------|
E|---------------------------------------------------------------------------|

e|---3----3-3-3----3-3-3----3-3-3----3-3-3-----------------------------------|
B|---4----4-4-4----4-4-4----4-4-4----4-4-4-----------------------------------|
G|---5----5-5-5----5-5-5----5-5-5----5-5-5-----------------------------------|
D|---5----5-5-5----5-5-5----5-5-5----5-5-5-----------------------------------|
A|---3----3-3-3----3-3-3----3-3-3----3-3-3---------------13\3----------------|
E|---------------------------------------------------------------------------|

CHORUS:

e|--------3--------3--------3--------3--------3--------3--------3--------2---|
B|--------3--------3--------3--------3--------3--------3--------3--------2---|
G|--------3--------3--------3--------3--------3--------3--------3--------2---|
D|--------5--------5--------5--------5--------5--------5--------5--------4---|
A|--------5--------5--------5--------5--------5--------5--------5--------4---|
E|--------3--------3--------3--------3--------3--------3--------3--------2---|
                                     They're coming to get yo-

e|--------1--------1--------1--------1--------1--------1--------1--------2---|
B|--------1--------1--------1--------1--------1--------1--------1--------2---|
G|--------1--------1--------1--------1--------1--------1--------1--------2---|
D|--------3--------3--------3--------3--------3--------3--------3--------4---|
A|--------3--------3--------3--------3--------3--------3--------3--------4---|
E|--------1--------1--------1--------1--------1--------1--------1--------2---|
     -ou                             They're asking now for your

e|--------3--------3--------3--------3--------3--------3--------3--------2---|
B|--------3--------3--------3--------3--------3--------3--------3--------2---|
G|--------3--------3--------3--------3--------3--------3--------3--------2---|
D|--------5--------5--------5--------5--------5--------5--------5--------4---|
A|--------5--------5--------5--------5--------5--------5--------5--------4---|
E|--------3--------3--------3--------3--------3--------3--------3--------2---|
    life                             They're coming to get yo-

e|--------1--------1--------1--------1--------1--------1--------1--------2---|
B|--------1--------1--------1--------1--------1--------1--------1--------2---|
G|--------1--------1--------1--------1--------1--------1--------1--------2---|
D|--------3--------3--------3--------3--------3--------3--------3--------4---|
A|--------3--------3--------3--------3--------3--------3--------3--------4---|
E|--------1--------1--------1--------1--------1--------1--------1--------2---|
     -ou                                         You've gotta stand up and   fight

Keep this exact riff on guitar 1, while guitar 2 plays a solo:

e|---------------------------------------------------------------------------|
B|-------6----------8--6----6--8-------4----------6--4----4--6---------------|
G|---777---7-----7-------7---------555---5-----5-------5---------------------|
D|---------------------------------------------------------------------------|
A|---------------------------------------------------------------------------|
E|---------------------------------------------------------------------------|

e|---------------------------------------------------------------------------|
B|-------6----------8--6----6--8-------4----------6--4----4--6---------------|
G|---777---7-----7-------7---------555---5-----5-------5---------------------|
D|---------------------------------------------------------------------------|
A|---------------------------------------------------------------------------|
E|---------------------------------------------------------------------------|

VERSE 2: (play as verse 1, with a bit more energy)

Shake it now rock it hard, that's if you still wanna dance
get a move on
you've seen their plans
echoes of another time and place
it's the return of the night

*** [play PRE-CHORUS] ***

AW AW AWWWW!

*** [play CHORUS] ***

e|--------3--------3--------3--------3--------3--------3--------3--------2---|
B|--------3--------3--------3--------3--------3--------3--------3--------2---|
G|--------3--------3--------3--------3--------3--------3--------3--------2---|
D|--------5--------5--------5--------5--------5--------5--------5--------4---|
A|--------5--------5--------5--------5--------5--------5--------5--------4---|
E|--------3--------3--------3--------3--------3--------3--------3--------2---|
(you've gotta stand up and) fight                   you've got nothing le-

e|--------1--------1--------1--------1--------1--------1--------1--------2---|
B|--------1--------1--------1--------1--------1--------1--------1--------2---|
G|--------1--------1--------1--------1--------1--------1--------1--------2---|
D|--------3--------3--------3--------3--------3--------3--------3--------4---|
A|--------3--------3--------3--------3--------3--------3--------3--------4---|
E|--------1--------1--------1--------1--------1--------1--------1--------2---|
      -ft                                                       break the

e|--------3--------3--------3--------3--------3--------3--------3--------2---|
B|--------3--------3--------3--------3--------3--------3--------3--------2---|
G|--------3--------3--------3--------3--------3--------3--------3--------2---|
D|--------5--------5--------5--------5--------5--------5--------5--------4---|
A|--------5--------5--------5--------5--------5--------5--------5--------4---|
E|--------3--------3--------3--------3--------3--------3--------3--------2---|
      rules                                            you've got nothing le-

e|--------1--------1--------1-------------7--------6--------5--------4-------|
B|--------1--------1--------1-------------8--------7--------6--------5-------|
G|--------1--------1--------1-------------9--------8--------7--------6-------|
D|--------3--------3--------3-------------9--------8--------7--------6-------|
A|--------3--------3--------3-------------7--------6--------5--------4-------|
E|--------1--------1--------1------------------------------------------------|
      -ft

e|----3----3-------3----3----3-------3----3----3-------3----4----4----4----4-|
B|----4----4-------4----4----4-------4----4----4-------4----6----6----6----6-|
G|----5----5-------5----5----5-------5----5----5-------5----6----6----6----6-|
D|----5----5-------5----5----5-------5----5----5-------5----6----6----6----6-|
A|----3----3-------3----3----3-------3----3----3-------3----4----4----4----4-|
E|---------------------------------------------------------------------------|

e|----3----3-------3----3----3-------3----3----------------------------------|
B|----4----4-------4----4----4-------4----4----------------------------------|
G|----5----5-------5----5----5-------5----5----------------------------------|
D|----5----5-------5----5----5-------5----5----------------------------------|
A|----3----3-------3----3----3-------3----3----------------------------------|
E|---------------------------------------------------------------------------|
                                                                        Ah

e|--------3--------3--------3--------3--------3--------3--------3--------3---|
B|--------4--------4--------4--------4--------4--------4--------4--------4---|
G|--------5--------5--------5--------5--------5--------5--------5--------5---|
D|--------5--------5--------5--------5--------5--------5--------5--------5---|
A|--------3--------3--------3--------3--------3--------3--------3--------3---|
E|---------------------------------------------------------------------------|
     ah                                                    ah

e|--------4--------4--------4--------4--------4--------4--------4--------4---|
B|--------4--------4--------4--------4--------4--------4--------4--------4---|
G|--------4--------4--------4--------4--------4--------4--------4--------4---|
D|--------6--------6--------6--------6--------6--------6--------6--------6---|
A|--------6--------6--------6--------6--------6--------6--------6--------6---|
E|--------4--------4--------4--------4--------4--------4--------4--------4---|
    ah                                                     ah

e|--------3--------3--------3--------3--------3--------3--------3--------3---|
B|--------4--------4--------4--------4--------4--------4--------4--------4---|
G|--------5--------5--------5--------5--------5--------5--------5--------5---|
D|--------5--------5--------5--------5--------5--------5--------5--------5---|
A|--------3--------3--------3--------3--------3--------3--------3--------3---|
E|---------------------------------------------------------------------------|
     ah                                                    ah

e|--------4--------4--------4--------4--------4--------4--------4--------4---|
B|--------4--------4--------4--------4--------4--------4--------4--------4---|
G|--------4--------4--------4--------4--------4--------4--------4--------4---|
D|--------6--------6--------6--------6--------6--------6--------6--------6---|
A|--------6--------6--------6--------6--------6--------6--------6--------6---|
E|--------4--------4--------4--------4--------4--------4--------4--------4---|
    ah

VERSE 3: (play exactly as verse 1)

Were you born to lose, always told to hate
now it's your pay day
dogs are running loose, catching all they can

e|---5---5---5---5---5---5---5---5---5---5---5---5---5---5---5---5---|
B|---5---5---5---5---5---5---5---5---5---5---5---5---5---5---5---5---|
G|---6---6---6---6---6---6---6---6---6---6---6---6---6---6---6---6---|
D|---7---7---7---7---7---7---7---7---7---7---7---7---7---7---7---7---|
A|---7---7---7---7---7---7---7---7---7---7---7---7---7---7---7---7---|
E|---5---5---5---5---5---5---5---5---5---5---5---5---5---5---5---5---|
            Sound of sirens smells of fire, crowd is going insane

e|--------1--------1--------1--------1--------1--------1--------1--------1---|
B|--------1--------1--------1--------1--------1--------1--------1--------1---|
G|--------1--------1--------1--------1--------1--------1--------1--------1---|
D|--------3--------3--------3--------3--------3--------3--------3--------3---|
A|--------3--------3--------3--------3--------3--------3--------3--------3---|
E|--------1--------1--------1--------1--------1--------1--------1--------1---|

e|--------5--------5--------5--------5--------5--------5--------5--------5---|
B|--------5--------5--------5--------5--------5--------5--------5--------5---|
G|--------5--------5--------5--------5--------5--------5--------5--------5---|
D|--------7--------7--------7--------7--------7--------7--------7--------7---|
A|--------7--------7--------7--------7--------7--------7--------7--------7---|
E|--------5--------5--------5--------5--------5--------5--------5--------5---|
             TV's always on so won't feel the

e|--------1--------1--------1-------------7--------6--------5----4----3------|
B|--------1--------1--------1-------------8--------7--------6----5----4------|
G|--------1--------1--------1-------------9--------8--------7----6----5------|
D|--------3--------3--------3-------------9--------8--------7----6----5------|
A|--------3--------3--------3-------------7--------6--------5----4----3------|
E|--------1--------1--------1------------------------------------------------|
    pain

guitar 1:
e|----3----3-------3----3----3-------3----3----3-------3----4----4----4----4-|
B|----4----4-------4----4----4-------4----4----4-------4----6----6----6----6-|
G|----5----5-------5----5----5-------5----5----5-------5----6----6----6----6-|
D|----5----5-------5----5----5-------5----5----5-------5----6----6----6----6-|
A|----3----3-------3----3----3-------3----3----3-------3----4----4----4----4-|
E|---------------------------------------------------------------------------|
guitar2:
e|----2-2-2-2-2---2------3------3---------2-2-2-2-2---2------3------3--------|
B|---------------------------------------------------------------------------|
G|---------------------------------------------------------------------------|
D|---------------------------------------------------------------------------|
A|---------------------------------------------------------------------------|
E|---------------------------------------------------------------------------|

guitar1:
e|----3----3-------3----3----3-------3----3----------------------------------|
B|----4----4-------4----4----4-------4----4----------------------------------|
G|----5----5-------5----5----5-------5----5----------------------------------|
D|----5----5-------5----5----5-------5----5----------------------------------|
A|----3----3-------3----3----3-------3----3----------------------------------|
E|---------------------------------------------------------------------------|
guitar2:
e|----2-2-2-2-3---2---3---2---3---2---3--------------------------------------|
B|---------------------------------------------------------------------------|
G|---------------------------------------------------------------------------|
D|---------------------------------------------------------------------------|
A|---------------------------------------------------------------------------|
E|---------------------------------------------------------------------------|

*** [play CHORUS] ***

ENDING:

Keep the CHORUS riff on guitar 1, while guitar 2 plays a solo:

e|---------------------------------------------------------------------------|
B|-------6----------8--6----6--8-------4----------6--4----4--6---------------|
G|---777---7-----7-------7---------555---5-----5-------5---------------------|
D|---------------------------------------------------------------------------|
A|---------------------------------------------------------------------------|
E|---------------------------------------------------------------------------|
                 They're coming to get you  They're asking now for your
                         (You've got nothing left)           (break the

e|---------------------------------------------------------------------------|
B|-------6----------8--6----6--8-------4----------6--4----4--6---------------|
G|---777---7-----7-------7---------555---5-----5-------5---------------------|
D|---------------------------------------------------------------------------|
A|---------------------------------------------------------------------------|
E|---------------------------------------------------------------------------|
   life          They're coming to get you           You gotta stand up and fight
   rules)                 (You've got nothing left)

Keep the chorus riff:

How does it feel when the voices get loud and intense (you've got nothing left)
you gotta, you gotta, you got it now! (break the rules)
How does it feel when the voices get loud and intense (you've got nothing left)
you gotta, you gotta, you got it now!

e|---3----3-3-3----3-3-3----3-3-3----3-3-3----3-3-3----3-3-4----4----4-------|
B|---4----4-4-4----4-4-4----4-4-4----4-4-4----4-4-4----4-4-6----6----6-------|
G|---5----5-5-5----5-5-5----5-5-5----5-5-5----5-5-5----5-5-6----6----6-------|
D|---5----5-5-5----5-5-5----5-5-5----5-5-5----5-5-5----5-5-6----6----6-------|
A|---3----3-3-3----3-3-3----3-3-3----3-3-3----3-3-3----3-3-4----4----4-------|
E|---------------------------------------------------------------------------|

e|---3-----------------------------------------------------------------------|
B|---4-----------------------------------------------------------------------|
G|---5-----------------------------------------------------------------------|
D|---5-----------------------------------------------------------------------|
A|---3-----------------------------------------------------------------------|
E|---------------------------------------------------------------------------|
    AW AW AWWWWWWWWWW!!!


That's it!
They have many other fantastic songs as well, as I said - check them out!

ENJOY!!!
Tap to rate this tab
 
# A B C D E F G H I J K L M N O P Q R S T U V W X Y Z