Song name
# A B C D E F G H I J K L M N O P Q R S T U V W X Y Z

Electrelane - On Parade tab

Help us improve GuitareTab! Take a short survey!
Electrelane- On Parade

Bass Intro (2 bars)

Then...

Guitar 1

e |-------------------------------------------|x4
B |--12-12-12-12b-----------------------------|
G |--12-12-12-12b-----------------------------|
D |-------------------------------------------|
A |-------------------------------------------|
E |-------------------------------------------|

Guitar 1
e |-------------------------------------------|x4
B |--12-12-12-12b-----------------------------|
G |--12-12-12-12b-----------------------------|
D |-------------------------------------------|
A |-------------------------------------------|
E |-------------------------------------------|
[same time]

Guitar 2
e |-------------------------------------------|x4
B |-------------------------------------------|
G |--7-9-7------------------------------------|
D |--------9-7--------------------------------|
A |------------10-7-10------------------------|
E |-------------------------------------------|

Guitar 1
     Em       G
e |--7-7-7-7--3-3-3-3-3-3-3-3-----------------|x8
B |--8-8-8-8--3-3-3-3-3-3-3-3-----------------|
G |--9-9-9-9--4-4-4-4-4-4-4-4-----------------|
D |--9-9-9-9--5-5-5-5-5-5-5-5-----------------|
A |--7-7-7-7--5-5-5-5-5-5-5-5-----------------|
E |-----------3-3-3-3-3-3-3-3-----------------|
[same time]

Guitar 2
e |-------------------------------------------|x8
B |-------------------------------------------|
G |--7-9-7------------------------------------|
D |--------9-7--------------------------------|
A |------------10-7-10------------------------|
E |-------------------------------------------|

Guitar 1 and Guitar 2
e |-------------------------------------------|x4
B |-15-15-15-15-15-15-17-17-17-17-17-17-------|
G |-------------------------------------------|
D |-12-12-12-12-12-12-14-14-14-14-14-14-------|
A |-------------------------------------------|
E |-------------------------------------------|

Guitar 1
     Em       G
e |--7-7-7-7--3-3-3-3-3-3-3-3-----------------|x8
B |--8-8-8-8--3-3-3-3-3-3-3-3-----------------|
G |--9-9-9-9--4-4-4-4-4-4-4-4-----------------|
D |--9-9-9-9--5-5-5-5-5-5-5-5-----------------|
A |--7-7-7-7--5-5-5-5-5-5-5-5-----------------|
E |-----------3-3-3-3-3-3-3-3-----------------|
[same time]

Guitar 2
e |-------------------------------------------|x8
B |-------------------------------------------|
G |--7-9-7------------------------------------|
D |--------9-7--------------------------------|
A |------------10-7-10------------------------|
E |-------------------------------------------|

Guitar 1 and Guitar 2
e |-------------------------------------------|x4
B |--15-15-15-15-15-15-17-17-17-17-17-17------|
G |-------------------------------------------|
D |--12-12-12-12-12-12-14-14-14-14-14-14------|
A |-------------------------------------------|
E |-------------------------------------------|

Guitar 1 and Guitar 2
     Em       G
e |--7-7-7-7--3-3-3-3-3-3-3-3-----------------|x4
B |--8-8-8-8--3-3-3-3-3-3-3-3-----------------|
G |--9-9-9-9--4-4-4-4-4-4-4-4-----------------|
D |--9-9-9-9--5-5-5-5-5-5-5-5-----------------|
A |--7-7-7-7--5-5-5-5-5-5-5-5-----------------|
E |-----------3-3-3-3-3-3-3-3-----------------|


Guitar 1 and Guitar 2 (Timing not perfect)
e |-x-x-x-x-x-x-x-x---------------------------|x2
B |-x-x-x-x-x-x-x-x---------------------------|
G |-x-x-x-x-x-x-x-x---------------------------|
D |-x-x-x-x-x-x-x-x---------------------------|
A |-x-x-x-x-x-x-x-x---------------------------|
E |-x-x-x-x-x-x-x-x---------------------------|

Guitar 1
e |--x--x--x--x--x--x--x--x-------------------|x1
B |--x--x--x--x--x--x--x--x-------------------|
G |--x--x--x--x--x--x--x--x-------------------|
D |--x--x--x--x--x--x--x--x-------------------|
A |--14-14-14-14-14-14-14-14------------------|
E |--x--x--x--x--x--x--x--x-------------------|
[same time]

Guitar 2
e |--x--x--x--x--x--x--x--x-------------------|x1
B |--x--x--x--x--x--x--x--x-------------------|
G |--16-16-16-16-16-16-16-16------------------|
D |--x--x--x--x--x--x--x--x-------------------|
A |--x--x--x--x--x--x--x--x-------------------|
E |--x--x--x--x--x--x--x--x-------------------|

Guitar 1 (Heavy Distortion)
     E5                      G5
e |-------------------------------------------|x8
B |-------------------------------------------|
G |-------------------------------------------|
D |--14-14-14-14-14-14-14-14-5-5-5-5-5-5-5-5--|
A |--14-14-14-14-14-14-14-14-3-5-5-5-5-5-5-5--|
E |--12-12-12-12-12-12-12-12-3-3-3-3-3-3-3-3--|
[same time]

Guitar 2
     Em                      G
e |--7-----7-----7-----7-----3-3-3-3-3-3-3-3--|x8
B |--8-----8-----8-----8-----3-3-3-3-3-3-3-3--|
G |--9-----9-----9-----9-----4-4-4-4-4-4-4-4--|
D |--9-----9-----9-----9-----5-5-5-5-5-5-5-5--|
A |--7-----7-----7-----7-----5-5-5-5-5-5-5-5--|
E |--------------------------3-3-3-3-3-3-3-3--|

Guitar 1 and Guitar 2
     Em (let ring)
e |--7----------------------------------------|
B |--8----------------------------------------|
G |--9----------------------------------------|
D |--9----------------------------------------|
A |--7----------------------------------------|
E |-------------------------------------------|

Tabbed By Drew Tudor

Any corrections or whatever, email me: drewtudor@hotmail.com
Related for On Parade tab