Song name
# A B C D E F G H I J K L M N O P Q R S T U V W X Y Z

Electrelane - After The Call tab

  INTRO

Guitar 1: /  Em  /  G  / A5  D / (clean)

Guitar 2:

E|----------------------------------------------------------------|
B|----------5------------------------(repeat as times ------------|
G|---2s7s4--4----4---2----0------------as necessary)--------------|
D|----------------------------0-----------------------------------[
A|----------------------------------------------------------------|
E|----------------------------------------------------------------|

Then:

Guitar 1: (distorted)

E|-------------------------------------------------------------------|
B|-------------------------------------------------------------------|
G|---------------7------------0-0-0-0-0-0-0-0------------------------]
D|---7--9--7--9-----9--7--9---0-0-0-0-0-0-0-0------------------------|
A|-------------------------------------------------------------------|
E|-------------------------------------------------------------------|

*repeat as times as necessary

Bridge: /  E5  / D5 E5 /  E5  /  E5 F#5 /

Repeat principal riff, and then bridge again, while guitar 2 do this:

e|--------------------3-------3-------3--------3---------------------|
B|--------------------5-------5-------5--------5---------------------|
G|-------------------------------------------------------------------]

Finish with principal riff, and thats it!

Hope you like it!

Any comments or suggestions: ionetfe@msn.com
  



Tap to rate this tab
# A B C D E F G H I J K L M N O P Q R S T U V W X Y Z