Song name
# A B C D E F G H I J K L M N O P Q R S T U V W X Y Z

Electrelane - Cut And Tun tab

-------------------------------------------------------------------------------
			     CUT AND RUN - Electrelane
-------------------------------------------------------------------------------
Tabbed by:Ben Goza
Email: benfrombackwhen@gmail.com

Tuning:Standard

  E#           C                  Dm       C

e|-8---8--8----8-8--(8)-8-8-8-8---9--9-9---8-8--(8)-8-8-8-8---------------|
B|-10--10-10---8-8--(8)-8-8-8-8---9--9-9---8-8--(8)-8-8-8-8---------------|
G|-10--10-10---9-9--(9)-9-9-9-9---9--9-9---9-9--(9)-9-9-9-9---------------|
D|------------------------------------------------------------------------|
A|------------------------------------------------------------------------|
E|------------------------------------------------------------------------|

This is the whole song, it just repeats. The Dm sounds kinda high when you play it 
the song,
I think they use a ukelele. You can also try playing it with these chords:

  E#      C      Dm

e|-X------8------10-|
B|-10-----8------10-|
G|-10-----9------10-|
D|-10-----10-----12-|
A|-8------10-----12-|
E|-X------8------10-|


Or use either of these Dm
e|-5-------5--|
B|-6-------6--|
G|-7---or--7--|
D|-X-------7--|
A|-X-------5--|
E|-X-------X--|

It's never going to sound exactly like the CD because, like I said, I think they're
it on a ukelele.
Tap to rate this tab
# A B C D E F G H I J K L M N O P Q R S T U V W X Y Z