Guitaretab - guitar tabs
Song name
# A B C D E F G H I J K L M N O P Q R S T U V W X Y Z

Electrelane - Gone Under Sea tab

			     GONE UNDER SEA - Electrelane

Tabbed by: Filip Mesko
Email: filip DOT mesko AT gmail DOT com

Tuning: E A D G B e

It's an easy song. The first long part (we can call it the verse) is basically this repeated.
[ Tab from: ]
      D		                    A
e |-----------------------------|-----------------------------|
B |-------3-----3-----3-----3---|-------2-----2-----2-----2---|
G |-----2-----2-----2-----2-----|-----2-----2-----2-----2-----|
D |---0-----0-----0-----0-------|-----------------------------|
A |-----------------------------|---0-----0-----0-----0-------|
E |-----------------------------|-----------------------------|

Then the song breaks out into a crescendo of sorts which is basically these chords 
over and over.
      D       A
e |---3---|---0---|
B |---3---|---2---|
G |---2---|---2---|
D |---0---|---2---|
A |-------|---0---|
E |-------|-------|

Good luck!
Please e-mail or comment suggestions etc...

| ^  bend
| /  slide up
| \  slide down
| h  hammer-on
| p  pull-off
| ~  let ring
| +  harmonic
| x  Mute note
Related for Gone Under Sea tab