Song name
# A B C D E F G H I J K L M N O P Q R S T U V W X Y Z

Electric Eel Shock - Metal Man tab

Hey guys this is my first tab up here,
newly released EES song, Metal Man.
These are all the riffs (except the solo), you can learn the placing/rhythm by playing 
with the song : http://www.youtube.com/watch?v=8d-5WU-iTm8

Tuning: Drop D

RIFF A
e|---------------------------------------------------------------|
B|---------------------------------------------------------------| x4
G|-7----------------------5-7----------------------5-------------|
D|-7------------------3-5-5-7------------------3-5-5-------------|
A|-5------------------3-5-3-5------------------3-5-3-------------|
E|---0-0-0-0-0-0-0-0--3-5-----0-0-0-0-0-0-0-0--3-5---------------|

e|---------------------------------------------------------------|
B|---------------------------------------------------------------|
G|-7-------5-7---------------5-7---------------------------------|
D|-7---3-5-5-7-----------3-5-5-5---------------------------------| x2
A|-5---3-5-3-5-----------3-5-3-5---------------------------------|
E|-----3-5---------------3-5-------------------------------------|

e|---------------------------------------------------------------|
B|---------------------------------------------------------------| x2
G|-7----------------------5-7----------------------5-------------|
D|-7------------------3-5-5-7------------------3-5-5-------------|
A|-5------------------3-5-3-5------------------3-5-3-------------|
E|---0-0-0-0-0-0-0-0--3-5-----0-0-0-0-0-0-0-0--3-5---------------|
      _______PM_____          ______PM_______
RIFF B
e|---------------------------------------------------------------|
B|---------------------------------------------------------------| x1
G|----5-5-5-5-5-5--------------5-5-5-5-5-5-----------------------|
D|----------------7-7-7-7-7-7--------------7-7-7-7-7-7-----------|
A|---------------------------------------------------------------|
E|---------------------------------------------------------------|

RIFF C
e|---------------------------------------------------------------|
B|---------------------------------------------------------------|
G|--------------5------------------5-----------------------------|
D|--------3/5p7--------------3/5p7-------------------------------|
A|----3p5----------------3p5-------------------------------------|
E|--0------------------0-----------------------------------------|


| /  slide up
| \  slide down
| h  hammer-on
| p  pull-off
| ~  vibrato
| +  harmonic
| x  Mute note
Tap to rate this tab
# A B C D E F G H I J K L M N O P Q R S T U V W X Y Z