Song name
# A B C D E F G H I J K L M N O P Q R S T U V W X Y Z

Electric Frankenstein - Its All Moving Faster tab

-------------------------------------------------------------------------------
		Its All Moving Faster - Electric Frankenstein
-------------------------------------------------------------------------------
Tabbed by: Die Fascists
Tuning: Standard

[Bass intro] I think 4x
G|---------------------------------------------------------------------------|
D|---------------------------------------------------------------------------|
A|-33333333----6--6----------------------------------------------------------|
E|---------444--66-6---------------------------------------------------------|

[Guitar intro]
e|---------------------------------------------------------------------------|
B|-----8----8----8----8------------------------------------------------------|
G|-----10^R-10^R-10^R-10^R---------------------------------------------------|
D|---------------------------------------------------------------------------|
A|---------------------------------------------------------------------------|
E|---------------------------------------------------------------------------|

Verse [Riff 1]	Not actual number of times.
e|---------------------------------------------------------------------------|
B|---------------------------------------------------------------------------|
G|--55555555-----8-----------------------------------------------------------|
D|--55555555-666-8-6666------------------------------------------------------|
A|--33333333-666-6-6666------------------------------------------------------|
E|-----------444---4444------------------------------------------------------|

Chorus [Riff 2]
e|---------------------------------------------------------------------------|
B|---------------------------------------------------------------------------|
G|--5555---101010101010------------------------------------------------------|
D|--5555---101010101010-666-888-101010101010---------------------------------|
A|--3333---8-8-8-8-8-8--666-888-101010101010---------------------------------|
E|----------------------444-666-8-8-8-8-8-8----------------------------------|

Bridge
e|---------------------------------------------------------------------------|
B|---------------------------------------------------------------------------|
G|-55--101010--------------55--101010----------88----------------------------|
D|-55--101010-666666-------55--101010--666666--88----------------------------|
A|-33--8-8-8--666666-------33--8-8-8---666666--66----------------------------|
E|------------444444-------------------444444--------------------------------|

End 
e|---------------------------------------------------------------------------|
B|---------------------------------------------------------------------------|
G|---------------------------------------------------------------------------|
D|---666-888-101010101010----------------------------------------------------|
A|---666-888-101010101010----------------------------------------------------|
E|---444-666-8-8-8-8-8-8-----------------------------------------------------|

| ^R Bend Release		|		Bass intro x4
				|		Guitar intro x1
				|		Verse x8
				|		chorus x2
				|		Verse x8
				|		chorus x4
				|		bridge x4
						Verse x8
						Chorus x4
						End x8
Tap to rate this tab
# A B C D E F G H I J K L M N O P Q R S T U V W X Y Z