Song name
# A B C D E F G H I J K L M N O P Q R S T U V W X Y Z

Electric Light Orchestra - Do Ya tab

----------------------------------------------------------------------------
			   Do Ya - ELO 
This song was on their 1976 album A New World Record.
Tabbed by: Andrew Yadeski
Email:Drumbum692@aol.com


e|---2------0----0-----2-----------2-----0----0------2---------------------|
B|---3------2----2-----0-----------3-----2----2------0---------------------|
G|---2------2----2-----0-----------2-----2----2------0---------------------|
D|---0------2----2-----0-----------0-----2----2------0---------------------|
A|----------0----0-----2-----------------0----0------2---------------------|
E|---------------------3-----------------------------3---------------------|
                                                 play G chord many times
e|---2------0----0-----2-----------2-----0----0------2---------------------|
B|---3------2----2-----0-----------3-----2----2------0---------------------|
G|---2------2----2-----0-----------2-----2----2------0---------------------|
D|---0------2----2-----0-----------0-----2----2------0---------------------|
A|----------0----0-----2-----------------0----0------2---------------------|
E|---------------------3-----------------------------3---------------------|
      Verse and Chorus
e|-------------------------------------------------------------------|
B|-------------------------------------------------------------------|play
G|------7------------------------------------------------------------|6
D|----7------7-----7-------5--------7--------------------------------|times
A|--5------------7---7----5--5----7---7------------------------------|for
E|-------------5--------3--------5-----------------------------------|verse
             Chorus
e|---2----0----0-----2----0------2-----0----0------2---0-----------------|
B|---3----2----2-----0----2------3-----2----2------0---2-----------------|
G|---2----2----2-----0----2------2-----2----2------0---2-----------------|
D|---0----2----2-----0----2------0-----2----2------0---2-----------------|
A|--------0----0-----2----0------------0----0------2---0-----------------|
E|-------------------3-----------------------------3---------------------|
----------------------------------------------------------------------------
			   Do Ya - ELO
----------------------------------------------------------------------------
Tabbed by: Andrew Yadeski
Email:Drumbum692@aol.com


e|---2------0----0-----2-----------2-----0----0------2---------------------|
B|---3------2----2-----0-----------3-----2----2------0---------------------|
G|---2------2----2-----0-----------2-----2----2------0---------------------|
D|---0------2----2-----0-----------0-----2----2------0---------------------|
A|----------0----0-----2-----------------0----0------2---------------------|
E|---------------------3-----------------------------3---------------------|
                                                 play G chord many times
e|---2------0----0-----2-----------2-----0----0------2---------------------|
B|---3------2----2-----0-----------3-----2----2------0---------------------|
G|---2------2----2-----0-----------2-----2----2------0---------------------|
D|---0------2----2-----0-----------0-----2----2------0---------------------|
A|----------0----0-----2-----------------0----0------2---------------------|
E|---------------------3-----------------------------3---------------------|

e|-------------------------------------------------------------------------|
B|-------------------------------------------------------------------------|
G|------7------------------------------------------------------------------|
D|----7------7--------7---------5----------7-------------------------------|
A|--5---------------7---7-----5---5------7----7----------------------------|
E|----------------5---------3----------5-----------------------------------|
         Play first part after bridge (I'm not sure how to play it)
Tap to rate this tab
 
# A B C D E F G H I J K L M N O P Q R S T U V W X Y Z