Song name
# A B C D E F G H I J K L M N O P Q R S T U V W X Y Z

Electric Light Orchestra - Showdown tab

    showdown - ELO
-------------------------------------------------------------------------------
Tabbed by:james
Email:

Tuning: normal EADGBe

e|----------3-5-3-8-3-5-8-10b11-11r10-8--10-8---------------12v~~~~--|
B|--------------------------------------------10-8-------------------|
G|-------------------------------------------------9-7---------------|
D|-----------------------------------------------------9-7-----------|
A|-------------------------------------------------------------------|
E|-------------------------------------------------------------------|

e|--------10 10b11-8-10-8-10b110-10-8-10p8----------------------8h10--|
B|-----------------------------------------10p8-------------8h10------|
G|----------------------------------------------9p7------7h9----------|
D|--------------------------------------------------9p7h9-------------|
A|--------------------------------------------------------------------|
E|--------------------------------------------------------------------|

This is the tab to a GREAT song by a GREAT band. It is not perfect and it is probably in 
wrong key but hey, I am only 12 years old and I tried.
Tap to rate this tab
# A B C D E F G H I J K L M N O P Q R S T U V W X Y Z