Song name
# A B C D E F G H I J K L M N O P Q R S T U V W X Y Z

Electric Light Orchestra - Showdown tab

-----------------------------------------------------------------------------
			     Showdown (Solo) - Eloctric Light Orchestra
-----------------------------------------------------------------------------
Tabbed by: Kasper van Dijk
Email: kasperkaratekid@hotmail.com

Tuning: E-A-D-G-B-e

I think this version is pretty correct, only the fast part may be a bit wrong. I'f you 
you can tab it better, feel free to use this tab as a template.


e|------------------------13b-----13---------------|
B|----13----16----13-16--------------16-13--13~----|
G|-12----12----12----------------------------------|
D|-------------------------------------------------|
A|-------------------------------------------------|
E|-------------------------------------------------|

e|-------------------------------------------------|
B|-16-13-11-------------------11~------------------|
G|----------12-11-10-8-7~--------------10b12-10b12-|
D|-------------------------------------------------|
A|-------------------------------------------------|
E|-------------------------------------------------|

e|-------------------------------------------------|
B|-------------------------------------------------|
G|-10b12~-----10---8----10b12---------10----8------|
D|---------------------------------------------10--|
A|-------------------------------------------------|
E|-------------------------------------------------|

e|--------------------------------------11~----13--|
B|--------------------8-11--13--11/13~-------------|
G|-10p8---------8----------------------------------|
D|------10-8-10------------------------------------|
A|----------------10-------------------------------|
E|-------------------------------------------------|

e|-------------------------------------------------|
B|-------------------------------------------------|
G|-10b-----------------12b-------------------------|
D|-------------------------------------------------|
A|-------------------------------------------------|
E|-------------------------------------------------|

e|-------------------------------------------------|
B|-------------------------------------------------|
G|-11b-----------------10b---10p8------------------|
D|-------------------------------10p8h10-10~-------|
A|-------------------------------------------------|
E|-------------------------------------------------|

| /  slide up
| \  slide down
| h  hammer-on
| p  pull-off
| ~  vibrato
| +  harmonic
| x  Mute note
=============================================================================
Tap to rate this tab
# A B C D E F G H I J K L M N O P Q R S T U V W X Y Z