Guitaretab - guitar tabs
Song name
# A B C D E F G H I J K L M N O P Q R S T U V W X Y Z

Electric Monkeys - Diamonds Of Fire tab

i have a band and we made up this song, you can see it
on you tube.

Key:
/=slide
p.m.----= palm muting
p=pull off
b=bend
hp=hamer on pull off

     intro
E|---------------------------------------------------|
B|---------------------------------------------------|
G|---------------------------------------------------|
D|----------------------------5----------------------|
A|----0-0-0-7-0-0-0-6-0-0-0-5------------------------|
E|------------------------------8--------------------|
       p.m.----------------------------
                (8 times)

E|---------------------------------------------------|
B|---------------------------------------------------|
G|---------------------------------------------------|
D|---------------------------------------------------|
A|---------------------------------------------------|
E|----0-0-0-7-0-0-0-6-0-0-0-5-3----------------------|
       p.m.--------------------------
                 (2 times)
[ Tab from: http://www.guitaretab.com/e/electric-monkeys/117873.html ]
       verse          
E|-----------------------|---------------------------|
B|-----------------------|---------------------------|
G|-----------------------|---------------------------|
D|-----------------------|---------------------------|
A|-----------------------|----------------------1----|
E|-0-0-0-3p0-0-0-0-3p0-5-|-0-0-0--3p0-0-0-0-3p0------|
        p.m.----------------------------------------
               (2 times)
E|------------------------|--------------------------|
B|------------------------|--------------------------|
G|------------------------|--------------------------|
D|------------------------|--------------------------|
A|----------------------2-|-----------------3--------|
E|--0-0-0-3p0-0-0-0-3p0---|-0-0-0-3p0-0-0-0----------|
      p.m.---------------------------------------
            (2 times)

E|---------------------------------------------------|
B|---------------------------------------------------|
G|---------------------------------------------------|
D|---------------------------------------------------|
A|---------2\7-------2/5-------2/3-------2hp3--------|
E|---0-0-0-----0-0-0-----0-0-0-----0-0-0-------------|
       (2 times)

   (repeat intro)

         solo
E|-----------------------------------------------------------------------|
B|-3/8-8/6-6/10-10/8-8/6-6/3-3/11-11/13-13/15-15-18-15-18-15-18-18-18b---|
G|-----------------------------------------------------------------------|
D|-----------------------------------------------------------------------|
A|-----------------------------------------------------------------------|
E|-----------------------------------------------------------------------|

E|-----------------------------|
B|-18-17-16-15-----------------|
G|-------------17-15-13-12-12/-|

D|---2------|
A|---2------|
E|---0------|