Song name
# A B C D E F G H I J K L M N O P Q R S T U V W X Y Z

Electric Owls - Kamiakin tab

Kamiakin
Electric Owls

Tune all strings 1/2 down

Intro: Verse:

eb-0--0---0--0--0---|
Bb-0---0---0-0---0--|
Gb-2-----2---2----2-|
Db-3-----3---3------|
Ab-3-----3---3------|
Eb-0h1-------0h1----|

("Except for...")

eb-0-0---1-1--0-0---0-|
Bb-0--0--1-1--1--1--1-|
Gb-0-----2-2--0-----2-|
Db-2-----3----2-----2-|
Ab-2-----3----3-----0-|
Eb-0-----1----x-----x-|

 
Chorus:
          Em             F
Have you ever seen the delta queen?
       C            Dm            Am

The loviliest place I have ever been
       Em                F

Where trees connect and block the sky
     C                 Dm               Am

And you don't know how you got there or why
       Em Dm    Am

But it sure is nice
Tap to rate this tab
# A B C D E F G H I J K L M N O P Q R S T U V W X Y Z