Song name
# A B C D E F G H I J K L M N O P Q R S T U V W X Y Z

Electric Six - Face Cuts tab

po - pull off
ho- hammer on

Intro
e--------------------------|
b--------------------------|
g--------------------------|
d---10-8-6---10-8-10-6-----|
a---10-8-6---10-8-10-6 x 3-|
e---8--6-4---8--6--8-4-----|

Chorous intro
-----
-----
-88-8
-8888 X 3
-6686
-6666

Chorous verse

------------------------|
--------------- 6-------|
-----8--------6---------|
---8------8-4-----6 X 3-|
-6------8---------6-----|
------6-----------4-----|

chorous part 2
--------------|
--------------|
---8----- X 1-|
--8---8-6-----|
-6---8--6-----|
----6---4-----|

repeat intro x 3
repeat chorous intro x 3
repeat Chorous verse x 3
repeat chorous verse part 2 x 1

repeat chorous intro x 3
repeat Chorous verse x 3
repeat chorous verse part 2 x 1

solo lick/riff    ho
-------------ho--8-11-|
------po----8-11------|
----8-10-8------------|
-10-------------------|
----------------------|
----------------------|

repeat intro x 3
repeat chorous intro x 3
repeat Chorous verse x 3
repeat chorous verse part 2 x 1
repeat Chorous verse x 3
repeat chorous verse part 2 x 1

Fade with chorous intro
Tap to rate this tab
# A B C D E F G H I J K L M N O P Q R S T U V W X Y Z