Song name
# A B C D E F G H I J K L M N O P Q R S T U V W X Y Z

Electric Six - American Cheese tab

-------------------------------------------------------------------------------
                             American Cheese (outro only) -Electric Six
-------------------------------------------------------------------------------
Tabbed by: Yoyoloto
Email: yussef_o@hotmail.com

Tuning: Standard


e|--3-3--3-3-3-----6-6--6-6-6---1-1--1-1-1---4-4--4-4-4---------------------|
B|--4-4--4-4-4-----7-7--7-7-7---2-2--2-2-2---4-4--4-4-4---------------------|
G|--5-5--5-5-5-----8-8--8-8-8---3-3--3-3-3---5-5--5-5-5---------------------|
D|--5-5--5-5-5-----8-8--8-8-8---3-3--3-3-3---6-6--6-6-6---------------------|
A|--3-3--3-3-3-----6-6--6-6-6---1-1--1-1-1---6-6--6-6-6---------------------|
E|--3-3--3-3-3-----6-6--6-6-6---1-1--1-1-1---4-4--4-4-4---------------------|

Here is another version of the outro of American cheese, listen to the song to know how 
many times you have to repeat this pattern, its always the same.

It's very easy if you have no trouble with bar chords, this version isn't the most 
accurate (OnlyLen's is the best), but I did it on purpose to have a different sensation.
Tap to rate this tab
 
# A B C D E F G H I J K L M N O P Q R S T U V W X Y Z