Song name
# A B C D E F G H I J K L M N O P Q R S T U V W X Y Z

Electric Six - Danger Danger High Voltage tab

Help us improve GuitareTab! Take a short survey!
standard tuning

Verse
|------------------
|-5p3------5p3-----
|-----4-4------4-4-
|------------------
|------------------
|------------------ repeat

guitar 2
|-x-x-6\------x-x-6\-
|-x-x-5\------x-x-5\-
|--------------------
|--------------------
|--------------------
|--------------------

|----------------------------
|-----5p3-------5-5-5^p3-5-3-
|-4-------4-2-4--------------
|----------------------------
|----------------------------
|----------------------------

|-3-x-4-x-6\-
|-3-x-4-x-5\-
|------------
|------------
|------------
|------------

Chorus (work out rhythm)
|--------------------------
|--------------------------
|-4----7----9----4----2--3-
|-4----7----9----4----2--3-
|-2----5----7----2----0--1-
|--------------------------

         |-3-x-4-x-6\-
         |-3-x-4-x-5\-
         |------------
         |------------
         |------------
         |------------ 
my desire....

Verse 2
|-----------------------------------------5--------5------------
|-5p3------5p3------5p3------5p3------5-7----3/5-7---5p3------5-
|-----4-4------4-4------4-4------4-4---------------------4-4----
|---------------------------------------------------------------
|---------------------------------------------------------------
|---------------------------------------------------------------

Solo
|----------------------------------------------------10----10------10-13-13-10-
|-------------------------7---7---9-10-12-12---10-12----12------12-------------
|-9p7---------7-7-7---7-9---9---9----------------------------------------------
|-----9-9-7-9-------9----------------------------------------------------------
|------------------------------------------------------------------------------
|------------------------------------------------------------------------------

----10----------10----------13^-13^-13^-13^-13^-13p10-------------------------
-12----12-11-12----12-11-12---------------------------12-10----10h12-10----10-
------------------------------------------------------------11----------11----
------------------------------------------------------------------------------
------------------------------------------------------------------------------
------------------------------------------------------------------------------

-13p10------------------------------------------|
-------12--10h12-10-7-7-7-10-7-10--7------------|
-------------------------------------9--7-9-7---|
----------------------------------------------9-|
------------------------------------------------|
------------------------------------------------|
most of the solo should be there, but there are a few little parts missing

Verse 3
|-x-5-x-7-x-7---x-10-x-10---x-12-x-12---x-7-x-7-
|-x-5-x-7-x-7---x-10-x-10---x-12-x-12---x-7-x-7-
|-----------------------------------------------
|-----------------------------------------------
|-----------------------------------------------
|-----------------------------------------------

Then there's a brass solo

|------------------
|-5p3------5p3-----
|-----4-4------4-4-
|------------------
|------------------
|------------------

then to end there's a total mess of brass and electric guitar which sounds like
it uses the same type of structure as the last.
any comments, leave here
Related for Danger Danger High Voltage tab