Song name
# A B C D E F G H I J K L M N O P Q R S T U V W X Y Z

Electric Six - Cluster Fuck tab

-------------------------------------------------------------------------------
                             Clusterfuck! - Electric Six
-------------------------------------------------------------------------------"
Album: Zodiac
Tabbed by: Mel
E-mail:melectricsix@gmail.com

Verse:
e]----------------------------------------------------------------------|
B]----------------------------------------------------------------------|
G]----------------------4--------7-----7-----9---9----------------------|
D]-2--------2-------2---4--------7-----7-----9---9--------5--4------2---|
A]-2--------2-------2---2--------5-----5-----7---7--------5--4------2---|
E]-0--------0-------0-------------------------------------3--2------0---|x4

e]-----------------------------------------------------|
B]-----------------------------------------------------|
G]-7-----------7-------------7--------------9----------|
D]-7-----------7-------------7--------------9----------|
A]-5-----------5-------------5--------------7----------|
E]-----------------------------------------------------|

Chorus:
e]--------------------------------------------------------------------|
B]--------------------------------------------------------------------|
G]------------------------------7-----7---9---------------------------|
D]-2------2-----5\9------9------7-----7---9-----9----7----5-------2---|
A]-2------2-----5\9------9------5-----5---7-----9----7----5-------2---|
E]-0------0-----3\7------7----------------------7----5----3-------0---|x2

Bridge
e]-7-7---5--5---7-7---3--3---7-7---2-2--7---(x2)--------------------------|
B]-8-8---7--7---8-8---5--5---8-8---3-3--8---------------------------------|
G]-9-9---7--7---9-9---5--5---9-9---4-4--9----------7\9------7\9------7\9--|
D]-9-9---7--7---9-9---5--5---9-9---4-4--9----------7\9------7\9------7\9--|
A]-7-7---5--5---7-7---3--3---7-7---2-2--7----------5\7------5\7------5\7--|
E]------------------------------------------------------------------------|

e]------7---7---------------7---7-7---5-------5---------------|
B]-----8--8---8------------7----7-----7--7-8-------5---5------|
G]----9---9---9-----------8----8------7------------6----------|
D]---9-------------------9------------7------------7----------|
A]--7------------7-0----9-------------5------------7----------|
E]--------------------7----------------------------5----------|


Guitar rif before outro
e]-------------------------------------------------------------------12--------|
B]-----12^-----12------12^----12-----------12^----12---12^-----12--------------|
D]--11------14-------------14----14-11---------14----------14-----14-----14-11-|
G]-----------------------------------------------------------------------------|
A]-----------------------------------------------------------------------------|
E]-----------------------------------------------------------------------------| x2

"oh why do bitches cry..."
e]----------------------------------------------------------------|
B]----------------------------------------------------------------|
G]-----------4------7-----------------------4-------7-------9-----|
D]----4------4------7-------4-------4-------4-------7-------9-----|
A]----4------2------5-------4-------4-------2-------5-------7-----|
E]----2---------------------2-------2-----------------------------| x6


Lyrics
---------

In the writings of the druids,
Lies a recipe for druid-fluid.
Sounds like a most refreshing drink to me!
You seem to be accruin'
More penalties than a Boston Bruin
But your card says "get out of jail for free".
You were always such a shoe-in,
But you didn't pay attention to what you were doin',
And no one here can do it as good as me!
No one here can do it, (huh!)
No one here can do it, (huh!)
No one here can do it as good as me!

And you would live my fantasy!

Singing "Yeah!
It was a clusterfuck! (was a clusterfuck)
Oh yeah, it really fucked us up (it really fucked us up)
Oh yeah!
It was a clusterfuck! (was a cluster fuck)
Oh yeah, it really fucked us up! (really fucked us up)
(I was fucked!)
Oh!"

Underneath, the city,
There's an old and lose that's none too pretty,
Sounds like a pretty good starting point to me!
And even though we're getting dizzy,
We worked the system down into a tizzy,
Let them hear our screams of victory!
'Cause no one else would do this,
We've won't be livin' through this,
We've surely made our mark in history.
'Cause no one here can do it, (huh!)
No one here can do it, (huh!)
No one here can do it as good as we!
(Ba-da-ba-da-dah!)

Singing "Yeah!
It was a clusterfuck! (was a clusterfuck)
Oh yeah, it really fucked us up! (it really fucked us up)
Oh yeah!
It was a clusterfuck! (was a cluster fuck)
Oh yeah, it really fucked us up (really fucked us up)
Really fucked us up!
Really fucked us up!
Really fucked us up!

Really fucked (and it fucked us up) us up".

Singin' "Yeah!
It was a clusterfuck! (it was a clusterfuck)
Oh yeah, it really fucked us up (it really fucked us up)
Oh yeah!
It was a clusterfuck! (was a cluster fuck)
Oh yeah, it really fucked us up, (really fucked us up)
Really fucked us up!
Really fucked us up!"

(I was fucked).

Oh why,
Do bitches cry,
When I went "bye, bye, bye"?
It ain't no lie,
That rent is too damn, too damn high.
I told this guy,
He got no alibi.
He wonder why,
Everyone here has got to die,
And bitches cry,
When I went "bye, bye, bye".
It ain't no lie,
That rent is too damn, too damn high.
We're movin' on,
We're movin' on and on, (we're movin' on)
We're movin' on, (we're movin' on, we're movin' on)
We're movin' on and on and on, (we're movin' on)
(It was so fucked up!)
We're movin' on,
We're movin' on and on and on...

---------------
Lyrics from http://www.wikisix.co.uk
Tap to rate this tab
# A B C D E F G H I J K L M N O P Q R S T U V W X Y Z