Guitaretab - guitar tabs
Song name
# A B C D E F G H I J K L M N O P Q R S T U V W X Y Z

Electric Six - Improper Dancing tab

-------------------------------------------------------------------------------
			     Electric Six - Improper Dancing
------------------------------------------------------------------------------
Tabbed by: Guitar_&_bass_1	
Email:parnham89@hotmail.com

Tuning: Standard

Intro: (not sure if this is right, but it sounds OK)
e|---10-10--x-x-x-x---10101010-12121212---|
B|-0-10-10--x-x-x-x---10101010-12121212-0-|
G|---7--7---x-x-x-x---7-7-7-7--9-9-9-9----|
D|----------------------------------------|
A|-0------------------------------------0-|
E|----------------------------------------|
 |                                        |
e|----------------------------------------|
B|-0------------------------------------0-|
G|----------------------------------------|
D|---/9~-----x-x-----7~---------x-x-------|
A|-0------------------------------------0-|
E|----------------------------------------|

Verse:
e|---10-10--x-x-x-x---10101010-12121212---|
B|-0-10-10--x-x-x-x---10101010-12121212-0-|
G|---7--7---x-x-x-x---7-7-7-7--9-9-9-9----|
D|----------------------------------------|
A|-0------------------------------------0-|
E|----------------------------------------|

Everybody's doing, what they shouldn't be doing,
Everybody's doing it, in the middle of the street.
Everybody's moving, what they shouldn't be moving,
Everybody's moving it, in the middle of the street.

Everybody's freakin', who they shouldn't be freakin',
Everybody's freakin', in the middle of the street.
Everybody's showin', what they shouldn't be showin',
Everybody's showin it, in the middle of the street.

Chorus:                               x3
e|------------------------------------|
B|-0--------------------------------0-|
G|------------------------------------|
D|---9-9-9-9-9-9-9--7-7-7-7-7-7-7-7---|
A|-0-9-9-9-9-9-9-9--7-7-7-7-7-7-7-7-0-|
E|---7-7-7-7-7-7-7--5-5-5-5-5-5-5-5---|

e|-----------------|
B|-----------------|
G|-----------------|
D|--5-5-5--7-7-7---|
A|--5-5-5-7-7-7---|
E|--3-3-3-5-5-5---| 

Improper dancing, In the middle of the street,
Improper dancing, In the middle of the street,
Improper dancing, In the middle of the street,
Someone better go find the chief of police.

Back to Chorus.
[ Tab from: http://www.guitaretab.com/e/electric-six/53496.html ]
Then to verse riff with no lyrics.

Then this:                             x2
e|-------------------------------------|
B|-0---------------------------------0-|
G|------7-------6-------4-------7------|
D|--------9-------7-------5-------9----|
A|-0---------------------------------0-|
E|---7-------5-------3-------7---------|
And I want to reach into the fire of your heart, and I want to programme all those beats
right from the start.


e|-------------------------------------|
B|-------------------------------------|
G|-------------------------------------|
D|---4-4-4-4-4-4-4-4-4-4-4-4-4-4-4-4---|
A|---4-4-4-4-4-4-4-4-4-4-4-4-4-4-4-4---|
E|---2-2-2-2-2-2-2-2-2-2-2-2-2-2-2-2---|

Have you ever been to New York city?

Then chorus riff 1 with these licks:

e|------------------------------------|
B|-0--12-15-12-12h15p12-------------0-|
G|----------------------14b16---------|
D|------------------------------------|
A|-0--------------------------------0-|
E|------------------------------------|

e|------------------------------------|
B|------------------------------------|
G|---9b11-11-11-11-11-11-11-11r9-7~---|
D|------------------------------------|
A|------------------------------------|
E|------------------------------------|

And the music starts to play, Honeys start to sway,
Jimmy Lees the DJ, in the middle of the street,
Beats a-droppin', bodys a-rockin', 
hearts a-stoppin', electric shockin',
I can't believe what I'm seeing, in the middle of the street,

Back to chorus.

Then chorus riffs, with this lick:

e|-------------12----------12----|
B|-0--12-12-15----12-12-15-----0-|
G|-------------------------------|
D|-------------------------------|
A|-0---------------------------0-|
E|-------------------------------|

STOP!

Continue:

Then chorus riffs, with this lick:

e|-------------12----------12----|
B|-0--12-12-15----12-12-15-----0-|
G|-------------------------------|
D|-------------------------------|
A|-0---------------------------0-|
E|-------------------------------|

Outro:

e|-------------------------------|
B|-------------------------------|
G|-------------------------------|
D|---9~---7~---129/-------------|
A|---9~---7~---129/-------------|
E|---7~---5~---107/-------------|
                          Yes!
Related for Improper Dancing tab