Song name
# A B C D E F G H I J K L M N O P Q R S T U V W X Y Z

Electric Six - Band In Hell tab

well this isnt exactly my tab but kudos for dan to writing it out for me. finally there
a copy of this song on the web.
joker_kid16@hotmail.com
e|7-------------------------|
B|--10--8--7-------7-7-7-[7-|
G|-------------7-9----------|
D|-----------9--------------|
A|--------------------------|
E|--------------------------|

[-bend to about the middle of fret board

e|-------------|-----|
B|-------------|-----|
G|-4-4-4-4-4-4-|-6-6-|
D|-4-4-4-4-4-4-|-6-6-|
A|-2-2-2-2-2-2-|-4-6-|
E|-mmmmmmmmmmm-|-mmm-|

muting the E string is really important or it will just make the whole song sound dodgy
Tap to rate this tab
# A B C D E F G H I J K L M N O P Q R S T U V W X Y Z