Song name
# A B C D E F G H I J K L M N O P Q R S T U V W X Y Z

Electric Wizard - Wizard Of Gore tab

this is my first tab, hope it helps. srry, no solo : /

                             ELECTRIC WIZARD
                             WIZARD OF GORE
 

b=bend  listen to the song to know when to play
::=repeat
 
part 1 (heavy distortion)                             
|-------------------------------------------|
|-------------------------------------------|
|-------------------------------------------|
|-------------------------------------------|
|-------------------------------------------|
|--5----0----5----0----5----0---------------|

part 2a (heavy distortion)
|--------------------------------------------\
|-------------------------------------------- \
|--------------------------------------------  \
|--------------------------------------------   \
|--------------------------------------------    \
|--0---0---6--5--3--5b--5--/12--11--10~~-----     \
                                                   \ this part goes on for 
part 2b (heavy distorion)                          / a while. and is the 
|-------------------------------------------::     /  rythem for when the
|--------------------------------------------    /   solo comes up. 
|--------------------------------------------   /
|--------------------------------------------  / 
|-------------------------------------------- /
|--0---0---6--5--3--5b--5--/12--10--12b-----::

part 3a
|--------------------------------------------|
|--------------------------------------------|
|--------------------------------------------|
|--------------------------------------------|
|--------------------------------------------|
|--2--2h4-4-4-4-4-2-7b-----------------------|
                                               play these one after the 
part 3b                                        other.
|-------------------------------------------::
|--------------------------------------------
|--------------------------------------------
|--------------------------------------------
|--------------------------------------------
|--2--2--2--2h4-4-4-4-4-2-/11b--11--10-8----::

then play part 2a and part 2b again

part 4a    
|-------------------------------------------::
|--------------------------------------------
|--------------------------------------------  you will play this mostly at
|--------------------------------------------  the end. ocasionally you will
|------12-11-9-11--7--9----------------------  play part 4b and part 4c.
|-7--7--------------------------------------::

part 4b
|--------------------------------------------|
|--------------------------------------------|
|--------------------------------------------|
|--------------------------------------------|
|------14-13-11-13--9--11--------------------|
|-9--9---------------------------------------|

part 4c
|--------------------------------------------|
|--------------------------------------------|
|--------------------------------------------|
|--------------------------------------------|
|--------17-16-14-16--12--14-----------------|
|-12--12-------------------------------------|

at the very end theres a solo and i couldnt tell what the rythem was. but some of 
part 4 a b and c were in there, just listen to the song. you'll get it.
its and amazzzing song. please rate!!
Tap to rate this tab
# A B C D E F G H I J K L M N O P Q R S T U V W X Y Z