Song name
# A B C D E F G H I J K L M N O P Q R S T U V W X Y Z

Electric Wizard - Torquemada 71 tab

The song is based around 2 riffs, with another kind of lead that starts the solo up...i 
have one lick of the solo down,
the way their solos are kind of like background noise to the song makes them hard to tab.

i'm playing in d standard.

Riff 1:

|------------------------------------------|
|------------------------------------------|
|------------------------------------------|
|------------------------------------------|
|-6--6--6--4-4--4---4-4/9-9-9--9--7-7--7br-|
|-4--4--4--2-2--2---2-2/7-7-7--7--5-5--5br-|

Riff 2 is just the opening riff, played an octave up:

|------------------------------------------|
|------------------------------------------|
|------------------------------------------|
|-6--6--6--4-4--4---4-4/9-9-9--9--7-7--7br-|
|------------------------------------------|
|------------------------------------------|

Riff 3 is played in the verses:

|-------------------------------|
|-------------------------------|
|-------------------------------|
|-------------------------------|
|-------------------------------|
|-0--0--0--0h3--5--5--5-5-4-3---|

Riff 4 and the lead are played before the solo:

|-----------------------------------|
|-----------------------------------|
|-----------------------------------|
|-----------------------------------|
|-----------------------------------|
|-0-0-0-0-0-0-0-0-0-0-0-0-0-3-3-3---|
  *---------------------------------|

|---------------------------------------------------------|
|---------------------------------------------------------|
|---------------------------------------------------------|
|-----------------------------------7b~--7-5-7p5-7p5------|
|-5h7-7-7-7--7-5h7-7-7-7--7-5h7-7-7-----------------7-----|
|---------------------------------------------------------|

And the bit of the solo that I have figured out...I don't know if the exact position of 
fretboard is right, but the intervals are.

|-----------------------------------------------------------------------|
|----12----12---12-----15-----15---15-----17----17---17-----12-----12---|
|14b~--14b~--------17b~---17b~--------19b~--19b~--------14b~---14b~-----|
|-----------------------------------------------------------------------|
|-----------------------------------------------------------------------|
|-----------------------------------------------------------------------|


Tab key:
/ = slide
b = bend
~ = hold bend
r = return bend
h = hammer on
p = pull off
* = mute (if there are 2 asterix's connected by lines it means mute all notes.


have fun.
Tap to rate this tab
# A B C D E F G H I J K L M N O P Q R S T U V W X Y Z