Guitaretab - guitar tabs
Song name
# A B C D E F G H I J K L M N O P Q R S T U V W X Y Z

Electric Wizard - Master Of Alchemy tab

-------------------------------------------------------------------------------
                   Master of Alchemy - Electric Wizard
-------------------------------------------------------------------------------


Tuning:  D, or lower...  whatever works for you
Album:  Let Us prey

| /  slide up
| \  slide down
| h  hammer-on
| p  pull-off
| ~  vibrato
| b  bend


This is just what I came up with while trying to figure out the song.
It may not be exact, but it sounds good to me :)

Riffs 1 and 2 are from the first half of the song, subtitled "House of Whipcord"
Riffs 3 and 4 are from the second half of the song, subtitled "The Black Drug"


Riff 1:

|---------------------------------------------------------------------------------------|
|---------------------------------------------------------------------------------------|
|---------------------------------------------------------------------------------------|
|---------------------------------------------------------------------------------------|
|---------------------------------------------------------------------------------------|
|--5--5h6--4--4h5--6p5--5p4--4h5--5h6---------------------------------------------------|


Riff 2:
[ Tab from: http://www.guitaretab.com/e/electric-wizard/190857.html ]
|---------------------------------------------------------------------------------------|
|---------------------------------------------------------------------------------------|
|---------------------------------------------------------------------------------------|
|---------------------------------------------------------------------------------------|
|---------------------------------------------------------------------------------------|
|--5--5h6--5--5h6--8p6--6p5--5p4--4-----------------------------------------------------|


Riff 3:

|---------------------------------------------------------------------------------------|
|---------------------------------------------------------------------------------------|
|---------------------------------------------------------------------------------------|
|---------------------------------------------------------------------------------------|
|---------------------------------------------------------------------------------------|
|--6b---6-5---5-5-5-5b--5-4----4-4-4----------------------------------------------------|


Riff 4:

|---------------------------------------------------------------------------------------|
|---------------------------------------------------------------------------------------|
|---------------------------------------------------------------------------------------|
|---------------------------------------------------------------------------------------|
|---------------------------------------------------------------------------------------|
|--6----5--------5b----4----4-4-4-------------------------------------------------------|

I would appreciate all corrections, input and comments.
I'm not a great tabber, but I love this damn song :)

ctdryden@gmail.com
Related for Master Of Alchemy tab
Advertisement will be closed in 10 seconds