Song name
# A B C D E F G H I J K L M N O P Q R S T U V W X Y Z

Electric Wizard - The Chosen Few tab

-------------------------------------------------------------------------------
                       The Chosen Few - Electric Wizard
-------------------------------------------------------------------------------

Important note:  Electric Wizard have two distinct songs, both named essentially the same thing.
"A Chosen Few" off of the album Let us Prey is a very different song than "The Chosen Few"
off of the album Witchcult Today.  This tab is for the latter, which I could not find
on the net so I tabbed it myself.

Tuning notes:  drop B
Album:  Witchcult Today

| /  slide up
| \  slide down
| h  hammer-on
| p  pull-off
| ~  vibrato
| b  bend


Intro:

|---------------------------------------------------------------------------------------|
|---------------------------------------------------------------------------------------|
|---------------------------------------------------------------------------------------|
|---------------------------------------------------------------------------------------|
|--/5---5---5-5/---8-8---8-8/---12-12---12--12-11-12-11-12-11--8------------------------|
|---------------------------------------------------------------------------------------|

Riff 1:

|---------------------------------------------------------------------------------------|
|---------------------------------------------------------------------------------------|
|---------------------------------------------------------------------------------------|
|--/7---7---7-7/----10-10---10-10/---14-14---14--14-13-14-13-14-13--10------------------|
|--/5---5---5-5/-----8--8----8--8/---12-12---12--12-11-12-11-12-11---8------------------|
|---------------------------------------------------------------------------------------|

Riff 2:

|---------------------------------------------------------------------------------------|
|---------------------------------------------------------------------------------------|
|---------------------------------------------------------------------------------------|
|--12---12---12-12/---15-15---15-15\-8--8-8\-5-5b---------------------------------------|
|--12---12---12-12/---15-15---15-15\-8--8-8\-5-5b---------------------------------------|
|--12---12---12-12/---15-15---15-15\-8--8-8\-5-5b---------------------------------------|

                                                |
                                                |
                                              Not really sure what's going on on this last note...
                                                Cant bend it quite right I guess...  or 
I'm just out to lunch
Riff 3:

|---------------------------------------------------------------------------------------|
|---------------------------------------------------------------------------------------|
|---------------------------------------------------------------------------------------|
|--12---12---12-12-11-10---12-11-10---8---8---8-8\---5--5/---8--------------------------|
|--12---12---12-12-11-10---12-11-10---8---8---8-8\---5--5/---8--------------------------|
|--12---12---12-12-11-10---12-11-10---8---8---8-8\---5--5/---8--------------------------|

Riff 4:

|------------------------------------------------------------------------------------|
|------------------------------------------------------------------------------------|
|------------------------------------------------------------------------------------|
|--12----12------12b----10----10------10b----8----8------8b----5---5---5---5-5/--13--|
|--12----12------12b----10----10------10b----8----8------8b----5---5---5---5-5/--13--|
|--12----12------12b----10----10------10b----8----8------8b----5---5---5---5-5/--13--|


There's a lot of distorted solos and other effects going on in background which makes it harder,
at least for me, to say this tab is accurate.  I didn't bother attempting to tab the solos at all,
sorry :)
Tap to rate this tab
# A B C D E F G H I J K L M N O P Q R S T U V W X Y Z