Song name
# A B C D E F G H I J K L M N O P Q R S T U V W X Y Z

Electric Wizard - The House On The Borderland tab

-------------------------------------------------------------------------------
               The House on the Borderland - Electric Wizard
-------------------------------------------------------------------------------

Tuning notes:  drop B
Album:  Electric Wizard/Reverend Bizarre split LP

Legend:
\  Slide Down
|  differentiates bridge from the riff, which is what repeats


Riff 1:  [00:00 - 02:20]   [02:52 - 03:40]

|---------------------------------------------------------------------------|
|---------------------------------------------------------------------------|
|---------------------------------------------------------------------------|
|---------------------------------------------------------------------------|
|---------------------------------------------------------------------------|
|---5--5--5--5--5--5--5--5--8-7-8\---3--8-7-8\---3--6-----------------------|


Riff 2:  [02:20 - 02:52]  [03:40 - 04:45]

|---------------------------------------------------------------------------|
|---------------------------------------------------------------------------|
|---------------------------------------------------------------------------|
|--------------|------------------------------------------------------------|
|--------------|-6-5-6---5--3---3--6-5-6---5--------------------------------|
|---5--5--5--5-|------------------------------5---5-------------------------|


Riff 2 Alternate:

|---------------------------------------------------------------------------|
|---------------------------------------------------------------------------|
|---------------------------------------------------------------------------|
|--------------|------------------------------------------------------------|
|--------------|------------------------------------------------------------|
|---5--5--5--5-|-13-12-13---12--10---10--13-12-13---12--5---5---------------|


Riff 3:  [04:45 - 06:30]

|---------------------------------------------------------------------------|
|---------------------------------------------------------------------------|
|---------------------------------------------------------------------------|
|---------------------------------------------------------------------------|
|---------------------------------------------------------------------------|
|---5---5--5-5-4-5---8---8--8-8-7-8-----------------------------------------|


Ending...  [06:30 - 11:00]

|---------------------------------------------------------------------------|
|---------------------------------------------------------------------------|
|---------------------------------------------------------------------------|
|--------------|------------------------------------------------------------|
|--------------|------------------------------------------------------------|
|---5----5---5-|-5--5--5--5--5--5--5--5--5--5--5--5--5--5--5--5--8--8--8--8-|


-------------------------------------------------------|
-------------------------------------------------------|
-------------------------------------------------------|
-------------------------------------------------------|
-------------------------------------------------------|
--9--9--9--9--9--9--9--9--9--9--9--9--9--9--9--9-------|


My count may be off on the ending...  quite a few notes to keep track of.
Tap to rate this tab
# A B C D E F G H I J K L M N O P Q R S T U V W X Y Z