Song name
# A B C D E F G H I J K L M N O P Q R S T U V W X Y Z

Electric Wizard - Son Of Nothing tab

-------------------------------------------------------------------------------
                       Son of Nothing - Electric Wizard
-------------------------------------------------------------------------------

Tuning:  Drop B
Album:  Come My Fanatics

There's also the Return to the Son of Nothingness... different recording, but same song.

Heavy distortion throughout this song.   Play slow, and heavy ;)
Vibrato adds a nice touch throughout any of the single string sections.




|---------------------------------------------------------------------------------------|
|---------------------------------------------------------------------------------------|
|---------------------------------------------------------------------------------------|
|---0h2---2---2---2---2---2---2---2---2---2---2---2p1---2p1-----------------------------|
|---0h2---2---2---2---2---2---2---2---2---2---2---2p1---2p1-----------------------------|
|---0h2---2---2---2---2---2---2---2---2---2---2---2p1---2p1-----------------------------|




|---------------------------------------------------------------------------------------|
|---------------------------------------------------------------------------------------|
|---------------------------------------------------------------------------------------|
|---0h2---2---2---2---2---2---2---2---2---2---2/--8--7--3-------------------------------|
|---0h2---2---2---2---2---2---2---2---2---2---2/--8--7--3-------------------------------|
|---0h2---2---2---2---2---2---2---2---2---2---2/--8--7--3-------------------------------|




|---------------------------------------------------------------------------------------|
|---------------------------------------------------------------------------------------|
|---------------------------------------------------------------------------------------|
|---------------------------------------------------------------------------------------|
|---------------------------------------------------------------------------------------|
|---/5--8--5--8----4--7-----------------------------------------------------------------|




|---------------------------------------------------------------------------------------|
|---------------------------------------------------------------------------------------|
|---------------------------------------------------------------------------------------|
|---------------------------------------------------------------------------------------|
|---------------------------------------------------------------------------4b----------|
|---5h8---8---8----8-8--5h8---8---8-7-6-------5h8---8---8----8-8--5h8---8---------------|




|---------------------------------------------------------------------------------------|
|---------------------------------------------------------------------------------------|
|---------------------------------------------------------------------------------------|
|---------------------------------------------------------------------------------------|
|------------------------------------------------------------------4-3---3-3-2----------|
|---5h8---8---8----8-8--5h8---8---8-7-6-------5h8---8---8----8-8------------------------|




|---------------------------------------------------------------------------------------|
|---------------------------------------------------------------------------------------|
|---------------------------------------------------------------------------------------|
|---------------------------------------------------------------------------------------|
|---3---3---8--7--3--3---3--6p5--3--4--4------------------------------------------------|
|---3---3---8--7--3--3---3--6p5--3--4--4------------------------------------------------|

    |
    |
   Listen for the staccato ... 



|---------------------------------------------------------------------------------------|
|---------------------------------------------------------------------------------------|
|---------------------------------------------------------------------------------------|
|---------------------------------------------------------------------------------------|
|---0h2---2---2---6--5--6--5------------------------------------------------------------|
|---0h2---2---2---6--5--6--5------------------------------------------------------------|
Tap to rate this tab
# A B C D E F G H I J K L M N O P Q R S T U V W X Y Z