Song name
# A B C D E F G H I J K L M N O P Q R S T U V W X Y Z

Electric Wizard - Satanic Rites Of Drugula tab

Tabbed from a video I found of Electric Wizard performing the song. I play it in
C# standard, but it sounds like it might be correctly played in C or B standard.

Riff one - intro

|----------------------------------------|
|----------------------------------------|
|----------------------------------------|
|-11--11--11-7-7--7br--------------------|
|--9---9---9-5-5--5br--9--9--9-5-5--5br--|
|----------------------7--7--7-3-3--3br--|

Riff 2 - the melody played over riff one after a while

|----------------------------------------|
|----------------------------------------|
|------------------------------------11~-|
|-11p9-11p9-11p9-11p9-11p9-11p9-11p9-----|
|----------------------------------------|
|----------------------------------------|

Riff 3 - the verse

|-----------------------------------------------|
|-----------------------------------------------|
|-----------------------------------------------|
|-----------------------------------------------|
|-----------------------------------------------|
|-0h2--2--2-0h2-2--0h2-2--5--5--5-5p4-4--4h5-5--|

Riff 4 - the chorus

|-------------------------------------|
|-------------------------------------|
|-------------------------------------|
|-11--11-10-7--7-10-11--11-10-7--7-10-|
|--9---9--8-5--5--8--9---9--8-5--5--8-|
|-------------------------------------|

Riff 4a - one of the guitars plays the same riff with a different rythm after one rep of 
riff above

|---------------------------------------------|
|---------------------------------------------|
|---------------------------------------------|
|-11-11-11--10--7-7-7-10-11-11-11-10-7-7-7-10-|
|--9--9--9---8--5-5-5--8--9--9--9--8-5-5-5--8-|
|---------------------------------------------|


And a fact about the song; the title comes from the Christopher Lee hammer horror film 
rites of dracula."

Enjoy.
Tap to rate this tab
# A B C D E F G H I J K L M N O P Q R S T U V W X Y Z