Song name
# A B C D E F G H I J K L M N O P Q R S T U V W X Y Z

Electric Wizard - Torquemada 71 tab

Tabbed by : Rebeltildeth87
Tuning: C standard


Riff A
|--------------------------|
|--------------------------|
|--------------------------|
|--------------------------|
|-4-4-44---2-7/9-9-99-7-7b-|
|-2-2-22-0-0-5/7-7-77-5-5b-|

Riff B
|----------------------|
|----------------------|
|----------------------|
|----------------------|
|-4-4-4-4/7-9-9-987-7b-|
|-2-2-2-2/5-7-7-765-5b-|

Riff C - Bridge
|--------------------|
|--------------------|
|--------------------|
|--------------------|
|-4----4----4----4/7-|
|-2-22-2-22-2-22-2/5-|

Riff D - solo backing
|--------------|
|--------------|
|--------------|
|--------------|
|-4--4--4--4/7-|
|-2--2--2--2/5-|

Lead
|--------------------------|
|--------------------------|
|--------------------------|
|-4-4-44-2-2-7/9-9-99-7-7b-|
|--------------------------|
|--------------------------|

Listen for structure
Tap to rate this tab
# A B C D E F G H I J K L M N O P Q R S T U V W X Y Z