Song name
# A B C D E F G H I J K L M N O P Q R S T U V W X Y Z

Electric Wizard - Funeralopolis tab

Im unsure about the tuning, alot of places I check says its in A#/Bb standard but I 
think it sounds closer to B Standard

Tuning A# Standard: A# D# G# C# F a#
        or
Tuning B Standard: B E A D F# b

The song is overall pretty slow, work into the groove and you'll get the rhythm easily.

For the solos play around in the A# minor pentatonic box.

Legend:
/ - Slide Up
\ - Slide Down
~ - Vibrato
h - Hammer On
p - Pull Off
^ - Bend to note

Intro Riff - Light Distortion
-----------------------------------------------------------------------------|
-----------------------------------------------------------------------------|
-----------------------------------------------------------------------------|
-----------------------------------------------------------------------------|
-----------------------------------------------------------------------------|
-/12~--12~-12~-10h12-12-12~--12-10h12-12-12p10-10--8~--8-8-8-8^9p0--5--5-5-5-|


-------------------------------------------------------------------|
-------------------------------------------------------------------|
-------------------------------------------------------------------|
-------------------------------------------------------------------|
-------------------------------------------------------------------|
-/12--12~-12~-10h12-12-12~--12-10h12-12-12p10-10--8~-8-8-0h5~--5~--|


--------------------------------------------------------------------|
--------------------------------------------------------------------|
--------------------------------------------------------------------|
--------------------------------------------------------------------|
--------------------------------------------------------------------|
-/12--12~-12~-10h12-12-12~--12-10h12-12-12p10-10--8~--8^9p0h5~--5~--|


-----------------------------------------------------------------------|
-----------------------------------------------------------------------|
-----------------------------------------------------------------------|
-----------------------------------------------------------------------|
-----------------------------------------------------------------------|
-/12--12~-12~-10h12-12-12~--12-10h12-12-12p10-10--8~-8-8-0h5~--3-5-3~--|



---------------------------------------------------------------------|
---------------------------------------------------------------------|
---------------------------------------------------------------------|
---------------------------------------------------------------------|
---------------------------------------------------------------------|
-/12--12~-12~-10h12-12-12~--12-10h12-12-12p10-10--8~-8-8-0h5~--5--5--|


-----------------------------------------------------------------------|
-----------------------------------------------------------------------|
-----------------------------------------------------------------------|
-----------------------------------------------------------------------|
-----------------------------------------------------------------------|
-/12--12~-12~-10h12-12-12~--12-10h12-12-12p10-10--8~-8-8-0h5~--3-5-3~--|


-----------------------------------------------------------------------|
-----------------------------------------------------------------------|
-----------------------------------------------------------------------|
-----------------------------------------------------------------------|
-----------------------------------------------------------------------|
-/12--12~-12~-10h12-12-12~--12-10h12-12-12p10-10--8~-8-8-0h5~--5-5--5--|


------------------------------------------------------------------------|
------------------------------------------------------------------------|
------------------------------------------------------------------------|
------------------------------------------------------------------------|
------------------------------------------------------------------------|
-/12--12~-12~-10h12-12-12~--12-10h12-12-12p10-10--8~-8-8-0h5~--5-5-5-5--|


Main Riff - Heavy distortion, about to blow the speakers
------------------------------------------------------------|
------------------------------------------------------------|
------------------------------------------------------------|
------------------------------------------------------------|
--14--14--14--12/14-14-14---14-12/14-14/12---10^11-------7--|
-/12--12--12--10/12-12-12---12-10/12-12/10----8^9--------5--|


Verse
-----------------    ----------------------------------|
-----------------    ----------------------------------|
-----------------    ----------------------------------|
-----------------    ----------------------------------|
-14--14--15-13~--    --12/14--14--14--14--------10^11--|
-12--12--13-11~-- X3 --10/12--12--12--12--10-12--------|


Riff A Tempo Change              Main Riff 2
-------------------------------- --------------------------------|
-------------------------------- --------------------------------|
-------------------------------- --------------------------------|
-------------------------------- --------------------------------|
-------------------------------- --7--7-7-8-7-----8-7----5-7~----|
-0--0-0-6-5---0-6-5--0-3-5~----- --0--0-0-6-5---0-6-5--0-3-5~----|

Riff B
--------------------------------------|
--------------------------------------|
--------------------------------------|
--------------------------------------|
-7-7-7-7-7-7-7------------15------12--|
-0-0-0-0-0-0-0---0-0-0/15----0/12-----|
Tap to rate this tab
# A B C D E F G H I J K L M N O P Q R S T U V W X Y Z