Song name
# A B C D E F G H I J K L M N O P Q R S T U V W X Y Z

Electric Wizard - Supercoven tab

Not the whole song, just the main riffs.
You'll figure them out if you know the song.


-------------------------------------------------------------------------|
-------------------------------------------------------------------------|
-------------------------------------------------------------------------|
-------------------------------------------------------------------------|
---------7-------7-------7--------------------7------7------7/13---------|
---------0-------0-------0--------5--4--3-----0------0------0------------|


-------------------------------------------------------------------------|
-------------------------------------------------------------------------|
-------------7-----------------5-----------------------------------------|
---------9-------9---------7-------7-------------------------------------|
-----7-----------------5---------------------5/7--7-7---7-7--5/7-7-7-----|
---------------------------------------------3/5--5-5---5-5--3/5-5-5-----|


-------------------------------------------------------------------------|
-------------------------------------------------------------------------|
-------------------------------------------------------------------------|
-----------9-----7-------------------------------------------------------|
--7--------7-----5-------5-------7---------------------------------------|
--0----------------------3-------5---------------------------------------|
Tap to rate this tab
# A B C D E F G H I J K L M N O P Q R S T U V W X Y Z