Song name
# A B C D E F G H I J K L M N O P Q R S T U V W X Y Z

Electric Wizard - We Hate You tab

B Standard tuning
Listen to the song to figure out where the riffs go and what to bend to
As for any Electric Wizard song, play as loud as possible

|---------------------------------------|
|---------------------------------------|
|---------------------------------------|
|----------2-----2-------------2-----3b-|
|-2--2----------------2--2--------------|
|-0--0--3-----3-------0--0--3-----3-----|

|---------------------------------------|
|---------------------------------------|
|----------9-----9-------------9------9b|
|---------------------------------------|
|-7--7--10----10-----7--7--10-----10----|
|-0--0---------------0--0---------------|

|---------------------------------------|
|---------------------------------------|
|---------------------------------------|
|---------------------------------------|
|-6--6----------9--9--------------------|
|-4--4--0--4b---7--7--0--4b-------------|

|--------------------------------|
|--------------------------------|
|--------------------------------|
|--------------------------------|
|-6--6-6--6--6-6-6--2--2-2--2b---|
|-4--4-4--4--4-4-4--0--0-0-------|
     . .     . . .     . .  


|----------------------------|
|--5/-6-5/-6-5/-6-7/-8-7/-9/-|
|----------------------------|
|----------------------------|
|----------------------------|
|----------------------------|
Tap to rate this tab
 
# A B C D E F G H I J K L M N O P Q R S T U V W X Y Z