Song name
# A B C D E F G H I J K L M N O P Q R S T U V W X Y Z

Electric Wizard - Behemoth tab

-----------------------------------------------------------------------------
Song: Behemoth
Band: Electric Wizard
Album: Electric Wizard
Tabbed by: TrollFaceJesus
E-mail: trollfacejesus@gmail.com


Hey everyone, this is my tab for this song, and I think it all sounds pretty 
good. All of the rhythm parts are in here, but I didn't tab out the solo. 
Hopefully everything here is accurate, and that you guys find this tab to be 
helpful! If you have any comments, questions, or corrections to point out, 
please feel free to leave a message here, or to send me an email! :D


Tuning: C


Riff 1
|------------------------------------------------------------|
|------------------------------------------------------------|
|------------------------------------------------------------| x2
|------------------------------------------------------------|
|--5---5--/11-11-8--8--10-----------------3-2-1br-------3/5--|
|--3---3--/9--9--6--6--8---1h3-3--3--3-3-----------3-3--1/3--|
                                                   . .


Riff 2
|------------------------------------------------------------|
|------------------------------------------------------------|
|---------/6--6--3--3--5------------------5-4-3tr4-----------| x2
|--5---5-------------------3h5-5--5--5-5------------5-4-3br--|
|------------------------------------------------------------|
|------------------------------------------------------------|


Riff 3a
|--------------------------------------|
|--------------------------------------|
|--------------------------------------| x1
|--------------------------------------|
|--5-------5-------3/5--------4-3-1br--|
|--3--3-3--3--3-3--1/3--3-3------------|
      . .     . .       . .

Riff 3b
|---------------------------------------|
|---------------------------------------|
|---------------------------------------| x1
|---------------------------------3tr4--|
|--5-------5-------3/5-------4p3--------|
|--3--3-3--3--3-3--1/3--3-3-------------|
      . .     . .       . .

Riff 3a x 1

Riff 3b x 1

Riff 3a x 1

Riff 3b x 1

Riff 3a x 1

Riff 3b x 1

Riff 1 x 2

Riff 3a x 1

Riff 3b x 1

Riff 3a x 1

Riff 3b x 1

Riff 1 x 2


Riff 4
|-----|
|-----|
|-----| x1
|-----|
|--5--|
|--3--|


Riff 5
|----------------------------|
|----------------------------|
|----------------------------| x6
|-------5--4--3br------------|
|--------------------5----1--|
|--3-------------------------|


Riff 6a (Guitar 1)
|----------------------------|
|----------------------------|
|----------------------------| x1
|-------/5--4--3+---------3--|
|--5-----------------5----1--|
|--3-------------------------|

Riff 6a (Guitar 2)
|----------------------------|
|----------------------------|
|----------------------------| x1
|-------/5--4--3br--------3--|
|--5-----------------5----1--|
|--3-------------------------|


Riff 6b (Guitar 1)
|------------------------------------------|
|------------------------------------------|
|------------------------------------------| x1
|------------5--4--3br---------------------|
|--5----------------------5---5br--1--1br--|
|--3----3-3--------------------------------|
        . .

Riff 6b (Guitar 2)
|------------------------------------------|
|------------------------------------------|
|------------------------------------------| x1
|------------5--4--3br---------------------|
|--5----------------------5--------1--1br--|
|--3----3-3--------------------------------|
        . .

Riff 6c
|---------------------------------|
|---------------------------------|
|---------------------------------| x1
|------------5--4--3br---------3--|
|--5----------------------5----1--|
|--3----3-3-----------------------|
        . .

Riff 6d
|--------------------------------|
|--------------------------------|
|--------------------------------| x1
|-------5--4--3br-------------3--|
|--5-----------------5---5br--1--|
|--3-----------------------------|


Riff 6a x 3

Riff 1 x 2

Riff 3a x 1

Riff 3b x 1

Riff 3a x 1

Riff 3b x 1

Riff 3a x 1

Riff 3b x 1

Riff 3a x 1

Riff 3b x 1

Riff 1 x 2


|-----|
|-----|
|-----| Song ends on Eb.
|--5--|
|--5--|
|--3--|


And that's it!


************************************

| /   slide up
| \   slide down
| h   hammer-on
| p   pull-off
| v   vibrato
| +   harmonic
|    Mute note
| b   Bend
| pb  Pre-bend
| br  Bend release
| pbr Pre-bend release
| brb Bend release bend

************************************
Tap to rate this tab
 
# A B C D E F G H I J K L M N O P Q R S T U V W X Y Z