Song name
# A B C D E F G H I J K L M N O P Q R S T U V W X Y Z

Electric Wizard - Dopethrone tab

Artist: Electric Wizard
Album: Dopethrone
Song: Dopethrone
Label: Rise Above
Difficulty: Intermediate
Tuning: A# (A# D# G# C# F# A#)

To the best of my abilities...

Intro (Lead Guitar only)

A#|--------------------------|
F#|--------------------------|
C#|--------------------------|
G#|--------------------------|
D#|--/7-7--------------------|
A#|-------6v--0-3h5-5-3h5-5--|

Main Riff (Lead and Rhythym)

A#|-------------------------|
F#|-------------------------|
C#|-------------------------|
G#|--/9-9-------------------|
D#|--/7-7-----2-5/7-7--5/7-7|
A#|-------6v--0-3/5-5--3/5-5|

Verse "Dope priest prophecy" (Lead and Rhythym)

A#|-----------------------|
F#|-----------------------|
C#|-----------------------|
G#|--9-9-9b---------------|
D#|--7-7-7b-2-5/7-7--5/7-7|
A#|---------0-3/5-5--3/5-5|

Pre-Chorus (Lead and Rhythym)

A#|------------------|
F#|------------------|
C#|------------------|
G#|--9--9--9---------|
D#|--7--7--7--2-5/7\5|
A#|-----------0-3/5\3|

Chorus (Lead and Rhythym)

A#|-----------------------------------------------------|
F#|-----------------------------------------------------|
C#|-----------------------------------------------------|
G#|--9--9b----------------------------------------------|
D#|--7--7b--2-7-7-7-7-7-10\9/10\9/10\9/10\9/10\9--17--12|
A#|---------0-5-5-5-5-5--8\7/-8\7/-8\7/-8\7/-8\7--15--10|

Bridge (Lead and Rhythym)

A#|---------------------------------|
F#|---------------------------------|
C#|---------------------------------|
G#|--/9--9--------------------------|
D#|--/7--7-------2--5//7--7--5//7--5|
A#|---------6v---0--3//5--5--3//5--5|

Outro (Lead) Right before the sample at the end (album version only)

A#|---------------|
F#|---------------|
C#|---------------|
G#|---------------|
D#|-2------2------|
A#|-0------0---6b-|

Structure
Intro: 2 times lead only
Intro: 2 times lead and drums
Main Riff: 4 times lead, rhythym, drums and bass
Verse: 4 times
Pre-chorus: 4 times
Chorus: 4 times
Bridge 6 times
Verse: 4 times
Pre-chorus: 4 times
Chorus: 8 times
Outro: 1 time
Tap to rate this tab
# A B C D E F G H I J K L M N O P Q R S T U V W X Y Z