Song name
# A B C D E F G H I J K L M N O P Q R S T U V W X Y Z

Electric Wizard - Vinum Sabbathi tab

-------------------------------------------------------------------------------
			     Vinum Sabbathi - Electric Wizard
-------------------------------------------------------------------------------
Tabbed by: DehumanizeR
Email: stivharris@hotmail.com

Tuning: A#
Album: Dopethrone
Label: Rise Above


Riff 1
|--------------------------------------|
|--------------------------------------|
|--------------------------------------|
|--------------------------------------|
|-2--22--10h0-5h0--5--55-5--5b---------|
|-0--00------------3--33-3-------------|
     xx               xx x


Riff 2
|---------------------------------|
|---------------------------------|
|---------------------------------|
|---------------------------------|
|-2--22---5--5/7/5/7/5------------|
|-0--00---3--3/5/3/5/3------------|


| /  slide
| h  hammer-on
| p  pull-off
| ~  vibrato
| .  palm mute
| x  mute note
| b  bend
Tap to rate this tab
# A B C D E F G H I J K L M N O P Q R S T U V W X Y Z