Song name
# A B C D E F G H I J K L M N O P Q R S T U V W X Y Z

Electric Wizard - Funeralopolis tab

Help us improve GuitareTab! Take a short survey!
tHIs is thE iNTRo onLy

tHIs soNg is NoT iN sTaNDard E TuNINg

thE tab, howEvER, is

iT is BROkEN iNTo 8 sEcTioNs

EacH sEcTioN is diFFErENT

TabbEd By: ebedaemegeh
EMail: savagepepperoni@yahoo.com

TuNiNg: Standard E

E|-----------------------------------------------------------|
B|-----------------------------------------------------------|
G|-----------------------------------------------------------|
D|-----------------------------------------------------------|
A|--5>7--7-7-5h7-7-7--7-5h7-7-7p5----------------------------|
E|--------------------------------0-8--8-8--0--5--55--5-0----|

E|-----------------------------------------------------------|
B|-----------------------------------------------------------|
G|-----------------------------------------------------------|
D|-----------------------------------------------------------|
A|--5>7--7-7-5h7-7-7--7-5h7-7-7p5----------------------------|
E|--------------------------------0-8--8-8--0--5--5----------|

E|-----------------------------------------------------------|
B|-----------------------------------------------------------|
G|-----------------------------------------------------------|
D|-----------------------------------------------------------|
A|--5>7--7-7-5h7-7-7--7-5h7-7-7p5----------------------------|
E|--------------------------------0-8--8^--5--5--------------|

E|-----------------------------------------------------------|
B|-----------------------------------------------------------|
G|-----------------------------------------------------------|
D|-----------------------------------------------------------|
A|--5>7--7-7-5h7-7-7--7-5h7-7-7p5----------------------------|
E|--------------------------------0-8--8-8--0-5-5-5-3h5-3--0-|

E|-----------------------------------------------------------|
B|-----------------------------------------------------------|
G|-----------------------------------------------------------|
D|-----------------------------------------------------------|
A|--5>7--7-7-5h7-7-7--7-5h7-7-7p5----------------------------|
E|--------------------------------0-8--8-8--0--5--5-5--0-----|

E|------------------------------------------------------------|
B|------------------------------------------------------------|
G|------------------------------------------------------------|
D|--------------------------------5---------------------------|
A|--5>7--7-7-5h7-7-7--7-5h7-7-5h7-----------------------------|
E|-----------------------------------8--8-8--0-5-5-5-3h5-3--0-|

E|-----------------------------------------------------------|
B|-----------------------------------------------------------|
G|-----------------------------------------------------------|
D|-----------------------------------------------------------|
A|--5>7--7-7-5h7-7-7--7-5h7-7-7p5----------------------------|
E|--------------------------------0-8--8-8--0--5--5-5--0-----|

E|------------------------------------------------------------|
B|------------------------------------------------------------|
G|------------------------------------------------------------|
D|------------------------------------------------------------|
A|--5>7--7-7-5h7-7-7--7-5h7-7-7p5-----------------------------|
E|--------------------------------0-8--8-8--0-5-5-5-5-5-5-5-0-|


_______________________-lEGENd-_______________________________

> | slide
h | hammer-on
p | pull-off
^ | bend *only done once distinctively*
Related for Funeralopolis tab