Song name
# A B C D E F G H I J K L M N O P Q R S T U V W X Y Z

Electric Wizard - Dopethrone tab

-------------------------------------------------------------------------------
			     Dopethrone - Electric Wizard
-------------------------------------------------------------------------------
Tabbed by: DehumanizeR
Email: stivharris@hotmail.com

Tuning: A#
Album: Dopethrone
Label: Rise Above


Riff 1  (between the verses riff 1 is played but with powerchords)
|-----------------------------------|
|-----------------------------------|
|-----------------------------------|
|-----------------------------------|
|-2--2------------------------------|
|-0--0--6~--6-3h5-5~--3h5-5~--------|


Riff 2
|------------------------|
|------------------------|
|------------------------|
|------------------------|
|-2---2---2---2-5/7/5~---|
|-0---0---0---0-3/5/3~---|


Riff 3
|------------------------------------------------------------------|
|------------------------------------------------------------------|
|------------------------------------------------------------------|
|------------------------------------------------------------------|
|-2----2----x7-7-7-7-7-7-7--109/109/109/109/109/109--/17-17-17-17--|
|-0----0----x5-5-5-5-5-5-5--8/7/8/7/8/7/8/7/8/7/8/7--/15-15-15-15--|


Riff 4
|-------------|
|-------------|
|-------------|
|-------------|
|-2--2--------|
|-0--0---/6b--|



| /  slide
| h  hammer-on
| p  pull-off
| ~  vibrato
| b  bend
| x  mute note
Tap to rate this tab
# A B C D E F G H I J K L M N O P Q R S T U V W X Y Z