Song name
# A B C D E F G H I J K L M N O P Q R S T U V W X Y Z

Electric Wizard - Return Trip tab

song by ELECTRIC WIZARD
from the album COME MY FANATICS
tab by Waltteri Savolainen, correction: waltteri_savolainenAThotmail.com
|--------|
|--------|
|--------|
|--------|
|-7-6-5--|
|--------|

And the whole riff goes like this: (bend it like hell)
|--------------------------------------------------------------------------------------------|
|--------------------------------------------------------------------------------------------|
|--------------------------------------------------------------------------------------------|
|--------------------------------------------------------------------------------------------|
|-2--2-2-------2------2--------------------------------2--2-2-------2------2----------7-6-5--|
|-0--0-0-3b--0-3b--0-3b---------------------------0--0-0-3b--0-3b--0-3b----------------------|

The riff beginning at 1:46 goes like:

|----------------------------------------------------------------------------------------|
|----------------------------------------------------------------------------------------|
|----------------------------------------------------------------------------------------|
|----------------------------------------------------------------------------------------|
|-/7---5--7------------2---7--5------------2---5--7------------2---7--5---------5-5/7-7--|
|--0---3--5------------0---5--3------------0---3--5------------0---5--3------------------|


|----------------------------------------|
|----------------------------------------|
|----------------------------------------|
|-2----2-8-7-5-------------5-7-7--5-7-7--|
|-0----0-6-5-3-5b------------------------|


|----------------------------------------------------------|
|----------------------------------------------------------|
|----------------------------------------------------------|
|----------------------------------------------------------|
|-9--9--9-8-7-5--7-5--5-7-5---9--9--9-8-7-7-5--7-5--5-7-5--|
|-7--7--7-6-5-3--5-3--3-5-3---7--7--7-6-5-5-3--5-3--3-5-3--|
Tap to rate this tab
 
# A B C D E F G H I J K L M N O P Q R S T U V W X Y Z