Electrik Dynamite - Electrify The Night tab

uning: standard
s= slide
*= palm mute

MAIN RIFF
e|---------------------------------------------------------------------|
B|---------------------------------------------------------------------|
G|--7s9-999---12-11--7--9---------7s9-999----12-11-7-------------------|
A|--7s9-999---12-11--7--9---------7s9-999----12-11-7-------------------|
D|--5s7-777---10--9--5--7---------5s7-777----10--9-5-------------------|
E|---------------------------------------------------------------------|


e|-----------------------------------------------------------------------|
B|-----------------------------------------------------------------------|
G|--7s9-999---12-11-7--9----------7s9-999----12-11-12--------------------|
A|--7s9-999---12-11-7--9----------7s9-999----12-11-12--------------------|
D|--5s7-777---10-9--5--7----------5s7-777----10--9-10--------------------|
E|-----------------------------------------------------------------------|


e|-----------------------------------------------------------------------|
B|-----------------------------------------------------------------------|
G|--7s9-999---12-11--7--9---------7s9-999----12-11-12--------------------|
A|--7s9-999---12-11--7--9---------7s9-999----12-11-12--------------------|
D|--5s7-777---10--9--5--7---------5s7-777----10--9-10--------------------|
E|-----------------------------------------------------------------------|


e|-----------------------------------------------------------------------|
B|-----------------------------------------------------------------------|
G|--7s9-999---12-11-7--9----------7s9-999----12-11-12--------------------|
A|--7s9-999---12-11-7--9----------7s9-999----12-11-12--------------------|
D|--5s7-777---10--9-5--7----------5s7-777----10--9-10--------------------|
E|-----------------------------------------------------------------------|

SOLO OVER MAIN RIFF
e|-----------------------------| --------------------------------|
B|-7s8-888--12-10-7-8----------|-- 7s8-888--12-10-12-------------|
G|-----------------------------|---------------------------------|
D|-----------------------------|---------------------------------|
A|-----------------------------|---------------------------------|
E|-----------------------------|---------------------------------|


AFTER THE SOLO BIT:
e|--------------------------------------------------------------------------|
B|--------------------------------------------------------------------------|
G|--7s9-999---12-11--7--9---------7s9-999----12-11-12-----------------------|
A|--7s9-999---12-11--7--9---------7s9-999----12-11-12-----------------------|
D|--5s7-777---10--9--5--7---------5s7-777----10--9-10-----------------------|
E|------***---*---*--*--*-------------***-----*--*--*-----------------------|
Tap to rate this tab
 
# A B C D E F G H I J K L M N O P Q R S T U V W X Y Z