Song name
# A B C D E F G H I J K L M N O P Q R S T U V W X Y Z

Elefant - Misfit tab

-------------------------------------------------------------------------------
			     Misfit - Elefant
-------------------------------------------------------------------------------
Tabbed by: Laky
Email: laky68@gmail.com

Tuning: Standard

This is the original version of the song, NOT the radio edit. The original is better anyways =P

Intro/Verse

e|--10-------8---8------9---9--9---11-11-11-11--|
B|--11-------8---8------9---9--9---13-13-13-13--|
G|--12-------8---8------10--10-10--13-13-13-13--|
D|--12-------10--10-----11--11-11--13-13-13-13--|
A|--10-------10--10-----11--11-11--11-11-11-11--|
E|-----------8---8------9---9--9----------------|

e|--10-------8---8------9---9---9/10--10-10-10--|
B|--11-------8---8------9---9---9/10--10-10-10--|
G|--12-------8---8------10--10-10/10--10-10-10--|
D|--12-------10--10-----11--11-11/12--12-12-12--|
A|--10-------10--10-----11--11-11/12--12-12-12--|
E|-----------8---8------9---9---9/10--10-10-10--|


Chorus- Guitar 1

e|---------|----------|---------|---------|
B|---------|----------|---------|---------|
G|--15-----|----------|---------|--12-----|
D|--13-(x8)|---12-----|--13-----|--12 (*8)|
A|---------|---10-(x8)|--11-(x8)|---------|
E|---------|----------|---------|---------|

e|---------|----------|----------|
B|---------|----------|----------|
G|--15-----|----------|----------|
D|--13-(x8)|---12-----|--13------|
A|---------|---10-(x8)|--11-(x16)|
E|---------|----------|----------|

Chorus- Guitar 2

e|----------------|
B|----------------|
G|--8-8-5-7b-7b-7-|  *16 (throughout duration of chorus)
D|----------------|
A|----------------|
E|----------------|

Bridge- Guitar 1
e|--66-|   
B|--88-|
G|--77-| *Listen to the song to learn when this pair is played in the bridge.
D|--88-|   Around the middle of the bridge, this chord is strummed repeatedly 
A|-----|   but then returns to being stummed in just pairs.
E|-----|

Bridge- Guitar 2

e|-6-6-6-6-6-6--8-8--|
B|--8-8-8-8-8-8--8-8-| * The whole way through the bridge
G|-------------------|
D|-------------------|
A|-------------------|
E|-------------------|

Chorus Again

End on
e|----|
B|----|
G|----|
D|-8--|
A|-6--|
E|----|

| /  slide up
| \  slide down
| b  bend
| h  hammer-on
| p  pull-off
| ~  vibrato
| +  harmonic
| x  Mute note
===============================================================================
Tap to rate this tab
# A B C D E F G H I J K L M N O P Q R S T U V W X Y Z