Song name
# A B C D E F G H I J K L M N O P Q R S T U V W X Y Z

Elefant - Lolita tab

Lolita - Elefant

Intro/Verse
(0:01 - 0:45)
e|-------------------------------------------------------------------------|
B|-------------------------------------------------------------------------|
G|-------------------------------------------------------------------------|
D|-------------------------------------------------------------------------|x5
A|-------------------------------------------------------------------------|
E|--0-0--3-3--2-2--5-5--3-3--7-7--5-5--7\--0-0--3-3--2-2--5-5--3-3--2-2--0-|

(0:46 - 0:53)
e|----------------------------------------------------------------------|
B|----------------------------------------------5-------5---------------|
G|----------------------------------------------------------------------|
D|----------------------------------------------------------------------|  x1
A|----------------------------------------------------------------------|
E|--0-0--3-3--2-2--5-5--3-3--7-7--5-5--7\--0-0-----0-0-----3-3--2-2--0--|

Chorus
(0:54 - 0:57)
e|-----------------------------------|
B|-----------------------------------|
G|-----------------------------------|
D|----9---9---9---9---9---9----------|  x1
A|--------------------------7-7-7----|
E|--7---7---7---7---7---7------------|

(0:57 - 1:10)
e|---------------|
B|---------------|
G|---------------|
D|---------------|  x7
A|-----9-9--5h7--|
E|--7------------|

Verse
(1:10 - 1:29)
e|-------------------------------------------------------------------------|
B|-------------------------------------------------------------------------|
G|-------------------------------------------------------------------------|
D|-------------------------------------------------------------------------|x2 1/2
A|-------------------------------------------------------------------------|
E|--0-0--3-3--2-2--5-5--3-3--7-7--5-5--7\--0-0--3-3--2-2--5-5--3-3--2-2--0-|

Chorus
(1:29 - 1:33)
e|-----------------------------------|
B|-----------------------------------|
G|-----------------------------------|
D|----9---9---9---9---9---9----------|  x1
A|--------------------------7-7-7----|
E|--7---7---7---7---7---7------------|

(1:33 - 1:48)
e|---------------|
B|---------------|
G|---------------|
D|---------------|  x8
A|-----9-9--5h7--|
E|--7------------|

Bridge
(1:48 - 2:14)
e|---------|
B|---------|
G|---------|
D|---------|  x14
A|--5-5-7--|
E|---------|

(2:14 - 2:29)
e|-------------------|
B|-------------------|
G|-------------------|
D|--2-2--4-4--7-7-9\-|  x4
A|--2-2--4-4--7-7-9\-|
E|--0-0--2-2--5-5-7\-|

(2:29 - 2:40)
e|---------------------|
B|---------------------|
G|---------------------|
D|--2-2--5-5--4-4--7-7-|  x3
A|--2-2--5-5--4-4--7-7-|
E|--0-0--3-3--2-2--5-5-|

(2:40 - 2:44)
e|-------------------------------------------|
B|-------------------------------------------|
G|-------------------------------------------|
D|--2-2--5-5--4-4--7-7--5-5--9-9--12-12--14\-|  x1
A|--2-2--5-5--4-4--7-7--5-5--9-9--12-12--14\-|
E|--0-0--3-3--2-2--5-5--3-3--7-7--10-10--12-\|

Chorus
(2:44 - 3:12)
e|---------------|
B|---------------|
G|---------------|
D|---------------|  x15
A|-----9-9--5h7--|
E|--7------------|

Outro
(3:12 - 3:23)
e|----------------------------------------|
B|----------------------------------------|
G|----------------------------------------|
D|----------------------------------------|x3
A|----------------------------------------|
E|--0-0--3-3--2-2--5-5--3-3--7-7--5-5--7\-|

(3:23 - 3:27)
e|---------------------------------|
B|---------------------------------|
G|---------------------------------|
D|---------------------------------|x1
A|---------------------------------|
E|-0-0--3-3--2-2--5-5--3-3--2-2--0-|
Tap to rate this tab
 
# A B C D E F G H I J K L M N O P Q R S T U V W X Y Z