Song name
# A B C D E F G H I J K L M N O P Q R S T U V W X Y Z

Elefant - Make Up tab


MAKE UP - ELEFANT

Hi =)

BASS - Intro
G|---------------------------------|
D|---------------------------------|
A|-5p0-2/5--0-5-0---5p0-2/5--0-5-0-|
E|---------------------------------|

G|---------------------------------|
D|---------------------------------|
A|-----------2---------------------|
E|-7-2-4/7--2-2---7-2-4-7-7-5-4-2--|

GUITAR
I've seen your smile...
E|---------------|
B|-----------7---|
G|-----7---------| x 12
D|-5-5---5-5-----|
A|---------------|
E|---------------|

Your spanish eyes are deep... (delay?)
E|------------|
B|-----5-7-5--|
G|---7--------| x 8
D|-5----------|
A|------------|
E|------------|

I've seen your smile...
E|---------------|
B|-----------7---|
G|-----7---------| x 12
D|-5-5---5-5-----|
A|---------------|
E|---------------|

[The part with the toms[drums]...]
...D.....B
E|-----|-----|
B|-----|-----|
G|-7---|-4---| x 2
D|-7---|-4---|
A|-5---|-2---|
E|-----|-----|


===


GUITAR 1
 [your spanish eyes...)
E|------------|
B|-----5-7-5--|
G|---7--------| x Until the end
D|-5----------|
A|------------|
E|------------|

GUITAR 2
E|------------|
B|--7--7--7--7|
G|--7--7--7--7| x Fade out.
D|------------|
A|------------|
E|------------|
Tap to rate this tab
# A B C D E F G H I J K L M N O P Q R S T U V W X Y Z