Song name
# A B C D E F G H I J K L M N O P Q R S T U V W X Y Z

Elefant - Bokkie tab

Hey, another elefant cool song..

Goes something like this:


|----0----0--------0----0--------|
|---1----3--------1----3-----1---|
|--2----2--------2----2----------|
|--------------------------------|
|--------------------------------|
|--------------------------------|

While the bass goes:

|------------------------------------------------------------------------|
|------------------------------------------------------------------------|
|------------------------------------------------------------------------|
|1-1---1-1---1-1---1-0-1-0-5-5---5-5---5-5---5-0-5-0-6-6---6-1-6-1-5-----|


And in the chorus:

|----------10------------------|
|---10(9)10--------------------|
|------------------------------|
|------------------------------|
|------------------------------|
|------------------------------|

The solo:

|----5ооо----3p5--1---0----------5ооо----3p5--1---0----1---|
|----------------------------------------------------------------------------------------|
|----------------------------------------------------------------------------------------|
|----------------------------------------------------------------------------------------|
|----------------------------------------------------------------------------------------|
|----------------------------------------------------------------------------------------|


I think that's all.. hope it works for you..

See ya!
If you have any coments: milari@gmail.com
Tap to rate this tab
 
# A B C D E F G H I J K L M N O P Q R S T U V W X Y Z