Song name
# A B C D E F G H I J K L M N O P Q R S T U V W X Y Z

Elefant - Uh Oh Hello tab

ORDER:
Intro
Verse
Chorus
Verse
Chorus
Bridge
Chorus 
End on C5

INTRO (bass part, play as many times as you need)

e-|--------------|
B-|--------------|
G-|--------------|
D-|--------------|
A-|--------------|
E-|-8-55-66-88---|

VERSE (bass part, play as many times as you need)

e-|--------------|
B-|--------------|
G-|--------------|
D-|--------------|
A-|--------------|
E-|-8-55-66-88---|

VERSE (lead guitar part, play as many times as you need)

e-|---------------------|
B-|---------------------|
G-|-5s7s5-5s7s5-555-7-5-|
D-|---------------------|
A-|---------------------|
E-|---------------------|

CHORUS (play as many times as you need)

e-|----------------------|
B-|----------------------|
G-|----------------------|
D-|-10---7-7--8-8--10-10-|
A-|-10---7-7--8-8--10-10-|
E-|--8---5-5--6-6---8--8-|

BRIDGE (starts after the singing stops, play as many times as you need)

e-|----------------------|
B-|----------------------|
G-|----------------------|
D-|-10---7-7--8-8--10-10-|
A-|-10---7-7--8-8--10-10-|
E-|--8---5-5--6-6---8--8-|
Tap to rate this tab
# A B C D E F G H I J K L M N O P Q R S T U V W X Y Z