Guitaretab - guitar tabs
Song name
# A B C D E F G H I J K L M N O P Q R S T U V W X Y Z
Home / E / Elefant / Ester tab

Elefant - Ester tab

-------------------------------------------------------------------------------
			     ESTER - Elefant
-------------------------------------------------------------------------------
Tabbed by:Luis Gustavo Hernández Collado
Email:ltavo_87@hotmail.com

Tuning:EADGBe

Intro
Guitar 1(Keyboard)
e|-------------------------------------------------|
B|-------------------------------------------------|
G|-------------------------------------------------|
D|-55---5---5---55---5---5---22---2---2---22---2---|
A|----7---7---7----7---7---7----3---3---3----3---3-|
E|-------------------------------------------------|

e|-------------------------------------------------|
B|-------------------------------------------------|
G|-------------------------------------------------|
D|-77---7---7---77---7---7---55---5---5---55---5---|
A|----8---8---8----8---8---8----7---7---7----7---7-|
E|-------------------------------------------------|
r=let ring

Verse 1 X2
(Ester why do you look all blue? Wat did I say to make you feel all blue?...)
Guitar 1(Keyboard)
e|-------------------------------------------------|
B|-------------------------------------------------|
G|-------------------------------------------------|
D|-55---5---5---55---5---5---22---2---2---22---2---|
A|----7---7---7----7---7---7----3---3---3----3---3-|
E|-------------------------------------------------|

e|-------------------------------------------------|
B|-------------------------------------------------|
G|-------------------------------------------------|
D|-77---7---7---77---7---7---55---5---5---55---5---|
A|----8---8---8----8---8---8----7---7---7----7---7-|
E|-------------------------------------------------|

Guitar 2
e|--------------------|
B|--------------------|
G|-5r--0r----5r----5r-|
D|-5r--2r---7-----5---|
A|-7r--3r--8-----7----|
E|--------------------|
r=let ring

Chorus 1 X2
(And that night when I called you, I was being young...)
Guitar 1(Keyboard)
e|-------------------------------------------------|
B|-------------------------------------------------|
G|-------------------------------------------------|
D|-55---5---5---55---5---5---22---2---2---22---2---|
A|----7---7---7----7---7---7----3---3---3----3---3-|
E|-------------------------------------------------|

e|-------------------------------------------------|
B|-------------------------------------------------|
G|-------------------------------------------------|
D|-77---7---7---77---7---7---55---5---5---55---5---|
A|----8---8---8----8---8---8----7---7---7----7---7-|
E|-------------------------------------------------|

Guitar 2
e|--------------------|
B|--------------------|
G|-5r--0r----5r----5r-|
D|-5r--2r---7-----5---|
A|-7r--3r--8-----7----|
E|--------------------|
r=let ring
[ Tab from: http://www.guitaretab.com/e/elefant/86762.html ]
Verse 2 X2
(Ester why can't you talk to me? why can't you look at me?...)
Guitar 1(Keyboard)
e|-------------------------------------------------|
B|-------------------------------------------------|
G|-------------------------------------------------|
D|-55---5---5---55---5---5---22---2---2---22---2---|
A|----7---7---7----7---7---7----3---3---3----3---3-|
E|-------------------------------------------------|

e|-------------------------------------------------|
B|-------------------------------------------------|
G|-------------------------------------------------|
D|-77---7---7---77---7---7---55---5---5---55---5---|
A|----8---8---8----8---8---8----7---7---7----7---7-|
E|-------------------------------------------------|

Guitar 2
e|--------------------|
B|--------------------|
G|-5r--0r----5r----5r-|
D|-5r--2r---7-----5---|
A|-7r--3r--8-----7----|
E|--------------------|
r=let ring

Chorus 2 X2
(And that night when I called you, I was being young...)
Guitar 1(Keyboard)
e|-------------------------------------------------|
B|-------------------------------------------------|
G|-------------------------------------------------|
D|-55---5---5---55---5---5---22---2---2---22---2---|
A|----7---7---7----7---7---7----3---3---3----3---3-|
E|-------------------------------------------------|

e|-------------------------------------------------|
B|-------------------------------------------------|
G|-------------------------------------------------|
D|-77---7---7---77---7---7---55---5---5---55---5---|
A|----8---8---8----8---8---8----7---7---7----7---7-|
E|-------------------------------------------------|

Guitar 2
e|--------------------|
B|--------------------|
G|-5r--0r----5r----5r-|
D|-5r--2r---7-----5---|
A|-7r--3r--8-----7----|
E|--------------------|
r=let ring

Interlude X2
Guitar 1(Keyboard)
e|-------------------------------------------------|
B|-------------------------------------------------|
G|-------------------------------------------------|
D|-55---5---5---55---5---5---22---2---2---22---2---|
A|----7---7---7----7---7---7----3---3---3----3---3-|
E|-------------------------------------------------|

e|-------------------------------------------------|
B|-------------------------------------------------|
G|-------------------------------------------------|
D|-77---7---7---77---7---7---55---5---5---55---5---|
A|----8---8---8----8---8---8----7---7---7----7---7-|
E|-------------------------------------------------|

Guitar 2
e|--------------------|
B|--------------------|
G|-5r--0r----5r----5r-|
D|-5r--2r---7-----5---|
A|-7r--3r--8-----7----|
E|--------------------|
r=let ring

Chorus 3/Outro X2
(And that night when I called you, I was being young...)
Guitar 1(Keyboard)
e|-------------------------------------------------|
B|-------------------------------------------------|
G|-------------------------------------------------|
D|-55---5---5---55---5---5---22---2---2---22---2---|
A|----7---7---7----7---7---7----3---3---3----3---3-|
E|-------------------------------------------------|

e|-------------------------------------------------|
B|-------------------------------------------------|
G|-------------------------------------------------|
D|-77---7---7---77---7---7---55---5---5---55---5---|
A|----8---8---8----8---8---8----7---7---7----7---7-|
E|-------------------------------------------------|

Guitar 2
e|--------------------|
B|--------------------|
G|-5r--0r----5r----5r-|
D|-5r--2r---7-----5---|
A|-7r--3r--8-----7----|
E|--------------------|
r=let ring
Related for Ester tab
Advertisement will be closed in 10 seconds